PrimaNota.ru - самый крупный в мире бесплатный архив песенных текстов, аккордов, табулатур и нот


Young Knives - Fit 4 U - бас-таба, видео

Регистрация Запомнить меня
Войти через:  Facebook Google Twitter Vk Yandex Mail.ru

Young Knives - Fit 4 U - бас-таба, видео

Печатать
Просмотров: 78
-------------------------------------------------------------------------------
                                                Fit 4 U - Young Knives
-------------------------------------------------------------------------------

Tuning: Standard
Key: Em


  INTRO         VERSE - repeat x6 for verses, x2 for outro
G|-------|-----------------------------------------------------------|
D|-------|-----------------------------------------------------------|
A|-------|--7-7-7----------------5-5-5--7-7-7------------------------|
E|-5--6--|---------7-7-7--8-8-8----------------7-7-7--8-8-8--7-7-7---|
   

    CHORUS
G|--------------------------------------------------------|
D|--------------------------------------------------------|
A|----------------7--7-7-7-7-7-7-----------------7-7-5-5--|
E|-7--7-7-7-7-7-7----------------7--7-7-7-7-7-7-----------|

G|--------------------------------------------------------|
D|--------------------------------------------------------|
A|----------------7--7-7-7-7-7-7--------------------------|
E|-7--7-7-7-7-7-7----------------7--7-7-7-7-7-7-5-5-6-6---|


   BRIDGE ('Hey runner...') x8, 9th time no open E at the end
G|--------------------|
D|--------------------|
A|-7------------------|
E|---7-7--7-8-8-7-7-0-|


End on open E string


===============================================================================
Добавлено: 27.07.2013
Другие материалы по этой песне:
  • Аккорды и текст

Страница создана 27.07.2013
http://primanota.ru/young-knives/fit-4-u-chords.htm
Привет, Гость.
Предлагаем пройти революционный курс по гитаре.
Подарок от PrimaNota.Ru, забирай!