PrimaNota.ru - самый крупный в мире бесплатный архив песенных текстов, аккордов, табулатур и нот


Young, John Paul - Lost In Your Love - аккорды и текст, видео

Регистрация Запомнить меня
Войти через:  Facebook Google Twitter Vk Yandex Mail.ru

Young, John Paul - Lost In Your Love - аккорды и текст, видео

Печатать
Просмотров: 108
Lost In Your Love
Young, John Paul
Artist: John Paul Young
Title: Lost in your love

Tabber: Fepo
Tuning: Standard

Intro:

Play these chords
A,B,C#,D,C#,B

then
e|--------------------------------------------|
B|--------------------------------------------|
G|--------------------------------------------|
D|--9--7-7~--9-7---7--------------------------|
A|---------------9----------------------------|
E|--------------------------------------------|


A
I'm lost in your love
B
Drowning in you
C#
I'm North and I'm South
        D
And I'm way overdue
    C#
I'm under your spell
                       B
And I'm in way over my head
B             A
I'm losing my way
B             A
Lost in your love

A
I'm lost in your love
B
Eyes open wide
C#
Don't know where I am
        D
But I'm all for the ride
    C#
I'm head over heels
                               B
I can't tell my left from my right

B             A
I'm losing my way
B             A
Lost in your love
C# B             A      
Ooh lost in your love


Bridge:

A D         C#                A
I see but I don't know I'm seeing
  D             C#          A
I speak I don't know what I say
  D            C#               A
I hear I don't know what I'm hearing
    B
I'm lost in a maze
      B                E
And I can't find the way


A
I'm lost in your love
B
Drowning in you
C#
I'm North and I'm South
        D
And I'm way overdue
    C#
I'm under your spell
                       B
And I'm in way over my head
B             A
I'm losing my way
B             A
Lost in your love

C# B             A      
Ooh lost in your love


Fade out till the end:

   Lost in your love
e|--------------------------------------------|
B|--------------------------------------------|
G|--------------------------------------------|
D|----9--7-----7------------------------------|
A|----------9---------------------------------|
E|--------------------------------------------|
Добавлено: 02.06.2016
Другие материалы по этой песне:
  • Аккорды и текст

Страница создана 02.06.2016
http://primanota.ru/young-john-paul/lost-in-your-love-chords.htm
Привет, Гость.
Предлагаем пройти революционный курс по гитаре.
Подарок от PrimaNota.Ru, забирай!