PrimaNota.ru - самый крупный в мире бесплатный архив песенных текстов, аккордов, табулатур и нот


Young-holt Unlimited - Soulful Strut - бас-таба, видео

Регистрация Запомнить меня
Войти через:  Facebook Google Twitter Vk Yandex Mail.ru

Young-holt Unlimited - Soulful Strut - бас-таба, видео

Печатать
Просмотров: 55
Уроки эстрадного вокала в Санкт-Петербурге
-------------------------------------------------------------------------------
                             Soulful Strut - Young-Holt Unlimited
-------------------------------------------------------------------------------
Tabbed by: CorporalCrunch

Tuning: Standard

Intro:
G|---------------------------------------------------------------------------|
D|----------1---1-1-1-1-1-31------------1---1-1-1-1-1-1-1--------------------|
A|1----3--------------------3-1----3-----------------------------------------|
E|---------------------------------------------------------------------------|


Part 1:
G|---------------------------------------------------------------------------|
D|--------------6788-------------------6788----------------------------------|
A|-----5--88-66-------68------5--88-66-------688-----1--3-5-3-----1--3-5-8---|
E|66--6-6------------7---66--6-6------------7----1-3----------1-3------------|


Part 2:
G|---------------------------------------------------------------------------|
D|--------------6788-------------------6788-------------------6788-----------|
A|-----5--88-66-------68------5--88-66-------68------5--88-66-------68-------|
E|66--6-6------------7---66--6-6------------7---66--6-6------------7---------|

G|---------------------------------------------------------------------------|
D|--------------6788-------------------6788-------------------6788-----------|
A|-----5--88-66-------68------5--88-66-------68------5--88-66-------68-------|
E|66--6-6------------7---66--6-6------------7---66--6-6------------7---------|

G|---------------------------------------------------------------------------|
D|--------------6788-------------------6788----------------------------------|
A|-----5--88-66-------68------5--88-66-------68-3--6---8-8-8-8-8-8-8---------|
E|66--6-6------------7---66--6-6------------7--------------------------------|


Part 3:
G|---------------------------------------------------------------------------|
D|--------------6788-------------------6788----------------------------------|
A|-----5--88-66-------68------5--88-66-------68-----1--3-5-3-----1--3-5-8----|
E|66--6-6------------7---66--6-6------------7---1-3----------1-3-------------|


Part 4:
G|---------------------------------------------------------------------------|
D|-----------------6788----------------------6788-------------------6788-----|
A|-----555-88-6566-------68------555-88-6565-------68------5--88-66-------68-|
E|66--6-----------------7---66--6-----------------7---66--6-6------------7---|

G|---------------------------------------------------------------------------|
D|--------------6788-------------------6788-------------------6788-----------|
A|-----5--88-66-------68------5--88-66-------68------5--88-66-------68-------|
E|66--6-6------------7---66--6-6------------7---66--6-6------------7---------|

G|---------------------------------------------------------------------------|
D|--------------6788-------------------6788-------------------6788-----------|
A|-----5--88-66-------68------5--88-66-------68------5--88-66-------68-------|
E|66--6-6------------7---66--6-6------------7---66--6-6------------7---------|

G|---------------------------------------------------------------------------|
D|--------------6788---------------------------------------------------------|
A|-----5--88-66-------68-3--6---8-8-8-8-8-8-8--------------------------------|
E|66--6-6------------7-------------------------------------------------------|


Part 5 (same as 1):
G|---------------------------------------------------------------------------|
D|--------------6788-------------------6788----------------------------------|
A|-----5--88-66-------68------5--88-66-------68-----1--3-5-3-----1--3-5-8----|
E|66--6-6------------7---66--6-6------------7---1-3----------1-3-------------|


Outro (Fade Out):
G|---------------------------------------------------------------------------|
D|--------------6788-------------------6788-------------------6788-----------|
A|-----5--88-66-------68------5--88-66-------68------5--88-66-------68-------|
E|66--6-6------------7---66--6-6------------7---66--6-6------------7---------|
Добавлено: 29.10.2015
Другие материалы по этой песне:
  • Аккорды и текст

Страница создана 29.10.2015
http://primanota.ru/young-holt-unlimited/soulful-strut-chords.htm
Привет, Гость.
Предлагаем пройти революционный курс по гитаре.
Подарок от PrimaNota.Ru, забирай!