PrimaNota.ru - самый крупный в мире бесплатный архив песенных текстов, аккордов, табулатур и нот


Young Guns - Young Woman Blues - таба, видео

Регистрация Запомнить меня
Войти через:  Facebook Google Twitter Vk Yandex Mail.ru

Young Guns - Young Woman Blues - таба, видео

Печатать
Просмотров: 45
-----------------------------------------------------------------
     YOUNG WOMAN BLUES - Young Guns
-----------------------------------------------------------------
Tabbed by: Tony Hughes
Email: tony.hughes@mac.com

Tuning: Open G

Intro Riff1
Riff2
Verse 1
Verse 2
Bridge 1
Verse 3
Bridge 2
Verse 4


Intro Riff 1 (use slide)
     x           ~
D|---/12---------------------------------------------------------|
B|------12------12\---10-------5\---/3\--------------------------|
G|-0------12----12\---10-------5\---/3\--------------------------|
D|-0---------------------------5\---/3\--------------------------|
G|-0---------------------------5\---/3\--------------------------|
D|---------------------------------------------------------------|

Riff 2 (use slide)

D|---------------------------------------------------------------|
B|-0--3/0-\12--12----5\0--2/3\0--\12--12-12--5-3-----------------|
G|-0--3/0-\12--12----5\0--2/3\0--\12--12-12--5-3-----------------|
D|-0--3/0-\12--12----5\0--2/3\0--\12--12-12--5-3-----------------|
G|-0--3/0-\12--12----5\0--2/3\0--\12--12-12--5-3-----------------|
D|---------------------------------------------------------------|

D|---------------------------|-----------------------------------|
B|-0--3/0-\12--12-12-12-12---|-5\0--2/3\0--\12--12-12------------|
G|-0--3/0-\12--12-12-12-12---|-5\0--2/3\0--\12--12-12------------|
D|-0--3/0-\12--12-12-12-12---|-5\0--2/3\0--\12--12-12------------|
G|-0--3/0-\12--12-12-12-12---|-5\0--2/3\0--\12--12-12------------|
D|---------------------------|-----------------------------------|

Verse 1&2&3
(no slide)
1.Well      I got a woman,       Gonna love me all night long
2.Well   You know that girl she        lives up on that hill
3.Well I aint no rich man        I do the best I can 
D|-----------------------------|-----------------------------|
B|-0-3-0--x-x-x--0-3-0--x-x-x--|-0-3-0--x-x-x--0-3-0--x-x-x--|
G|-0-3-0--x-x-x--0-3-0--x-x-x--|-0-3-0--x-x-x--0-3-0--x-x-x--|
D|-0-3-0--x-x-x--0-3-0--x-x-x--|-0-3-0--x-x-x--0-3-0--x-x-x--|
G|-0-3-0--x-x-x--0-3-0--x-x-x--|-0-3-0--x-x-x--0-3-0--x-x-x--|
D|-----------------------------|-----------------------------|

(with slide)
D|-----------------------------|-----------------------------------|
B|------3/0-\12--12-12-12-12---|-5\0--2/3\0--\12--12-12------------|
G|------3/0-\12--12-12-12-12---|-5\0--2/3\0--\12--12-12------------|
D|------3/0-\12--12-12-12-12---|-5\0--2/3\0--\12--12-12------------|
G|------3/0-\12--12-12-12-12---|-5\0--2/3\0--\12--12-12------------|
D|-----------------------------|-----------------------------------|

(no slide - loosly strum around the single frets)
1.Well      I got a woman,        Gonna love me all night long
2.Yeah you, you know the girl she lives up        on that hill
3.well I dont wear no suits or shiny shoes, I do the best I can
D|-----------------------------|----------------------------------|
B|-----------------------------|----------------------------------|
G|-----------------------------|----------------------------------|
D|--5----7-----8----7----------|--5----7---------0---3------------|
G|--5----5-----5----5----------|--5----5---------0---3------------|
D|-----------------------------|----------------------------------|

(with slide)
D|-----------------------------|-----------------------------------|
B|---0--3/0-\12--12-12-12-12---|-5\0--2/3\0--\12--12-12------------|
G|---0--3/0-\12--12-12-12-12---|-5\0--2/3\0--\12--12-12------------|
D|---0--3/0-\12--12-12-12-12---|-5\0--2/3\0--\12--12-12------------|
G|---0--3/0-\12--12-12-12-12---|-5\0--2/3\0--\12--12-12------------|
D|-----------------------------|-----------------------------------|


(build up strumming with slide)  (let ring)
She's most welcome to my loving, until the cows come home
While her momma and poppa sleep, I sneek through a windowsill
well I just want to take my little girl, and lead her by the hand
D|-----------------------------|----------------------------------|
B|--7-7-7-7-7-7-7--------------|--5-----------------------5\3-2/3-|
G|--7-7-7-7-7-7-7--------------|--5-----------------------5\3-2/3-|
D|--7-7-7-7-7-7-7--9b----------|--5-----------------------5\3-2/3-|
G|--7-7-7-7-7-7-7--------------|--5-----------------------5\3-2/3-|
D|-----------------------------|----------------------------------|

(with slide)
D|---------------------------|-----------------------------------|
B|-0--3/0-\12--12-12-12-12---|-5\0--2/3\0--\12--12-12------------|
G|-0--3/0-\12--12-12-12-12---|-5\0--2/3\0--\12--12-12------------|
D|-0--3/0-\12--12-12-12-12---|-5\0--2/3\0--\12--12-12------------|
G|-0--3/0-\12--12-12-12-12---|-5\0--2/3\0--\12--12-12------------|
D|---------------------------|-----------------------------------|



Play Verse 2 straight after Verse 1 then...
Bridge 1
(with slide)
     x           ~                                                   ~
D|---/12------------------------|---/12------------12----15-------|
B|------12----12\---10--0-5\-3\-|------12----12\---12----15-------|
G|-0------12--12\---10--0-5\-3\-|-0------12--12\---12----15-------|
D|-0--------------------0-5\-3\-|-0-------------------------------|
G|-0--------------------0-5\-3\-|-0-------------------------------|
D|------------------------------|---------------------------------|

(with slide)
     x           ~                                                   ~
D|---/12------------------------|---/12---------------------------|
B|------12----12\---10--0-5\-3\-|------12----12\-----7----5-3-----|
G|-0------12--12\---10--0-5\-3\-|-0------12--12\-----7----5-3-----|
D|-0--------------------0-5\-3\-|-0------------------7----5-3-----|
G|-0--------------------0-5\-3\-|-0------------------7----5-3-----|
D|------------------------------|---------------------------------|

(with slide)
D|------------------------------|---------------------------------|
B|-0--3/0-\12--12---------------|-5\0--2/3\0--\12--12-12--5-3-----|
G|-0--3/0-\12--12---------------|-5\0--2/3\0--\12--12-12--5-3-----|
D|-0--3/0-\12--12---------------|-5\0--2/3\0--\12--12-12--5-3-----|
G|-0--3/0-\12--12---------------|-5\0--2/3\0--\12--12-12--5-3-----|
D|------------------------------|---------------------------------|

D|------------------------------|---------------------------------|
B|-0--3/0-\12--12-12-12-12------|-5\0--2/3\0--\12---------12------|
G|-0--3/0-\12--12-12-12-12------|-5\0--2/3\0--\12---------12------|
D|-0--3/0-\12--12-12-12-12------|-5\0--2/3\0--\12---------12------|
G|-0--3/0-\12--12-12-12-12------|-5\0--2/3\0--\12---------12------|
D|------------------------------|---------------------------------|


VERSE 3 (as above, then skip Bridge 1 and play Bridge 2)


BRIDGE 2
D|--------------------------------|-------------------------------|
B|--------------------------------|-------------------------------|
G|-0---0--0--0---0--0--0--0---0---|-0---0--0--0---0--0--0--0---0--|
D|-0---0--0--0---0--0--0--0---0---|-0---0--0--0---0--0--0--0---0--|
G|-10--10-10-10--10-10-10-10--10--|-9---9--9--9---9--9--9--9---9--|
D|--------------------------------|-------------------------------|

(with slide)
D|------------------------------|---------------------------------|
B|-5\0-0-0--3/0----0-5/0--------|-5\0-0-0--3/0----0-5/0-----------|
G|-5\0-0-0--3/0----0-5/0--------|-5\0-0-0--3/0----0-5/0-----------|
D|-5\0-0-0--3/0----0-5/0--------|-5\0-0-0--3/0----0-5/0-----------|
G|-5\0-0-0--3/0----0-5/0--------|-5\0-0-0--3/0----0-5/0-----------|
D|------------------------------|---------------------------------|

(no slide)
D|--------------------------------|-------------------------------|
B|--------------------------------|-------------------------------|
G|-0---0--0--0---0--0--0--0---0---|-0---0--0--0---0--0--0--0---0--|
D|-0---0--0--0---0--0--0--0---0---|-0---0--0--0---0--0--0--0---0--|
G|-10--10-10-10--10-10-10-10--10--|-9---9--9--9---9--9--9--9---9--|
D|--------------------------------|-------------------------------|

(with slide)
D|------------------------------|---------------------------------|
B|-5\0-0-0--3/0----0-5/0--------|-5\0-0-0--3/0----0-5/0-----------|
G|-5\0-0-0--3/0----0-5/0--------|-5\0-0-0--3/0----0-5/0-----------|
D|-5\0-0-0--3/0----0-5/0--------|-5\0-0-0--3/0----0-5/0-----------|
G|-5\0-0-0--3/0----0-5/0--------|-5\0-0-0--3/0----0-5/0-----------|
D|------------------------------|---------------------------------|

(no slide)
D|--------------------------------|-------------------------------|
B|--------------------------------|-------------------------------|
G|-0---0--0--0---0--0--0--0---0---|-0---0--0--0---0--0--0--0---0--|
D|-0---0--0--0---0--0--0--0---0---|-0---0--0--0---0--0--0--0---0--|
G|-10--10-10-10--10-10-10-10--10--|-9---9--9--9---9--9--9--9---9--|
D|--------------------------------|-------------------------------|

(with slide strum hole bar with pattern)
D|-0---3--3--3----3--3--3--3-3/--|-5---5--5--5----5--5--5--5-5-----|
B|-0---3--3--3----3--3--3--3-3/--|-5---5--5--5----5--5--5--5-5-----|
G|-0---3--3--3----3--3--3--3-3/--|-5---5--5--5----5--5--5--5-5-----|
D|-0---3--3--3----3--3--3--3-3/--|-5---5--5--5----5--5--5--5-5-----|
G|-0---3--3--3----3--3--3--3-3/--|-5---5--5--5----5--5--5--5-5-----|
D|-0---3--3--3----3--3--3--3-3/--|-5---5--5--5----5--5--5--5-5-----|
(with slide) x 2
D|------------------------------|---------------------------------|
B|-5\0-0-0--3/0----0-12/0-------|-5\0-0-0--3/0----0-12/0----------|
G|-5\0-0-0--3/0----0-12/0-------|-5\0-0-0--3/0----0-12/0----------|
D|-5\0-0-0--3/0----0-12/0-------|-5\0-0-0--3/0----0-12/0----------|
G|-5\0-0-0--3/0----0-12/0-------|-5\0-0-0--3/0----0-12/0----------|
D|------------------------------|---------------------------------|



Verse 4 (lyrics as verse 1)
(no slide - pause after start of each bar)
4.Well      I got a woman,       Gonna love me all night long
D|-----------------------------|-----------------------------|
B|-0---------------------------|-3---0-------------------3/0-|
G|-0---------------------------|-3---0-------------------3/0-|
D|-0---------------------------|-3---0-------------------3/0-|
G|-0---------------------------|-3---0-------------------3/0-|
D|-----------------------------|-----------------------------|

(with slide)
D|-----------------------------|-----------------------------|
B|------3/0-\12--12-12-12-12---|-5\0--2/3\0--\12--12-12------|
G|------3/0-\12--12-12-12-12---|-5\0--2/3\0--\12--12-12------|
D|------3/0-\12--12-12-12-12---|-5\0--2/3\0--\12--12-12------|
G|------3/0-\12--12-12-12-12---|-5\0--2/3\0--\12--12-12------|
D|-----------------------------|-----------------------------|

(with slide)
4.Well      I got a woman,   she gonna love me all night long
D|-----------------------------|-----------------------------|
B|-0---------------------------|-------------------------3/0-|
G|-0---------------------------|-------------------------3/0-|
D|-0---------------------------|-------------------------3/0-|
G|-0---------------------------|-------------------------3/0-|
D|-----------------------------|-----------------------------|

(with slide)
D|-----------------------------|-----------------------------|
B|------3/0-\12--12-12-12-12---|-5\0--2/3\0--\12--12-12------|
G|------3/0-\12--12-12-12-12---|-5\0--2/3\0--\12--12-12------|
D|------3/0-\12--12-12-12-12---|-5\0--2/3\0--\12--12-12------|
G|------3/0-\12--12-12-12-12---|-5\0--2/3\0--\12--12-12------|
D|-----------------------------|-----------------------------|

(build up strumming with slide)  (let ring)
4.She's most welcome to my loving, until the cows come home
D|-----------------------------|----------------------------------|
B|--7-7-7-7-7-7-7-7-7----------|--5---------------------------2/3-|
G|--7-7-7-7-7-7-7-7-7----------|--5---------------------------2/3-|
D|--7-7-7-7-7-7-7-7-7----------|--5---------------------------2/3-|
G|--7-7-7-7-7-7-7-7-7----------|--5---------------------------2/3-|
D|-----------------------------|----------------------------------|

(with slide)                             ~
D|---------------------------|------12-----------------|
B|-0--3/0-\12--12-12-12-12---|-5\0----12----0/3\0------|
G|-0--3/0-\12--12-12-12-12---|-5\0------12--0/3\0------|
D|-0--3/0-\12--12-12-12-12---|-5\0----------0/3\0------|
G|-0--3/0-\12--12-12-12-12---|-5\0----------0/3\0------|
D|---------------------------|-------------------------|

THE END!

| /  slide up
| \  slide down
| h  hammer-on
| p  pull-off
| ~  vibrato
| +  harmonic
| x  Mute note
Добавлено: 27.11.2015
Другие материалы по этой песне:
  • Аккорды и текст

Страница создана 27.11.2015
http://primanota.ru/young-guns/young-woman-blues-chords.htm
Привет, Гость.
Предлагаем пройти революционный курс по гитаре.
Подарок от PrimaNota.Ru, забирай!