PrimaNota.ru - самый крупный в мире бесплатный архив песенных текстов, аккордов, табулатур и нот


Young Guns - There Will Be Rain - таба, видео

Регистрация Запомнить меня
Войти через:  Facebook Google Twitter Vk Yandex Mail.ru

Young Guns - There Will Be Rain - таба, видео

Печатать
Просмотров: 136
okay, this is my 1st tab ... i KNOW it definitely isn't exact, it's more like a 'fairly 
accurate interpretation'  but it works along to the song and i've played it on acoustic 
and electric and it sounds okay to me!

listen to the song for timings :)

**UPDATED - last time, i missed out the 'no matter how far i go...' part**

(the verse can change timings to be the intro too)



INTRO, BRIDGE & 1ST HALF OF OUTRO:

e|------------------------------------------------------------------|
B|------------------------------------------------------------------|
G|--4h5h6-6---4h5h6-6-6-8-8-----4-4---4h5h6-6---4h5h6-6-6-----------|  X2
D|--------------------------4h6---------------------------6h4-------|
A|------------------------------------------------------------6h4---|
E|------------------------------------------------------------------|

VERSE:

e|--------------|
B|-----------2--|
G|--6--9--4--2--|
D|--6--9--4--2--| X2
A|--4--7--2-----|
E|--------------|

CRESCENDO UNTIL CHORUS:

e|-----|
B|-----|
G|--6--|
D|--6--|
A|--4--|
E|-----|

CHORUS:

e|-----------------|
B|-----------2-----|
G|--6--9--4--2--4--|
D|--6--9--4--2--4--| X2
A|--4--7--2-----2--|
E|-----------------|

"NO MATTER HOW FAR I GO...." SECTION:

e|------------|
B|------------|
G|--9--11--6--|  X4
D|--9--11--6--|
A|--7--9---4--|
E|------------|

fill gap between that and the last chorus with the last chord...




OUTRO 2:

e|--------------------------------|
B|--------------------------------|
G|--------------------------------| X2
D|--------------------------------|
A|----0-4---0-4----0-4---------4--|
E|--1------1-----1-----4-6-8-4----|


Again, it's not perfect but it works for me
Добавлено: 19.05.2012
Другие материалы по этой песне:
  • Аккорды и текст

Страница создана 19.05.2012
http://primanota.ru/young-guns/there-will-be-rain-chords.htm
Привет, Гость.
Предлагаем пройти революционный курс по гитаре.
Подарок от PrimaNota.Ru, забирай!