PrimaNota.ru - самый крупный в мире бесплатный архив песенных текстов, аккордов, табулатур и нот


Young Guns - I Was Born I Have Lived I Will Surely Die - текст песни, таба, видео

Регистрация Запомнить меня
Войти через:  Facebook Google Twitter Vk Yandex Mail.ru

Young Guns - I Was Born I Have Lived I Will Surely Die - текст песни, таба, видео

Печатать
Просмотров: 126
----------------------------------------------------------------------------
I Was Born, I Have Lived, I Will Surely Die - Young Guns
-----------------------------------------------------------------------------

Tabbed by: disaster015

Tuning: Drop B (B,F#,B,E,G#,Db)

Intro:

Db|------------|
G#|------------|
 E|-----7------|
 B|-----7------|
F#|-----5------|
 B|------------|

Intro and verse 1: Rythm guitar(muted)

   (0:10)                     "I was born, I have lived...
Db|-------------------------------------------------------------------------|
G#|-------------------------------------------------------------------------|
 E|-------------------------------------------------------------------------|
 B|---0-0-0-0---0-0-0-0-----0-0-0-0---0-0-0-0---0-0-0-0---0-0-0--5-5-5-5----|
F#|---0-0-0-0---0-0-0-0-----0-0-0-0---0-0-0-0---0-0-0-0---0-0-0--5-5-5-5----|
 B|---0-0-0-0---0-0-0-0-----0-0-0-0---0-0-0-0---0-0-0-0---0-0-0--5-5-5-5----|

Db|------------------------------|
G#|------------------------------|
 E|------------------------------|
 B|--5-5-5-5--5-5-5-5--5-5-5-----|
F#|--5-5-5-5--5-5-5-5--5-5-5-----|
 B|--5-5-5-5--5-5-5-5--5-5-5-----|

Db|-------------------------------------------------------------------------|
G#|-------------------------------------------------------------------------|
 E|-------------------------------------------------------------------------|
 B|--0-0-0-0-----------------------0-0-0-0--0-0-0-0--0-0-0------------------|
F#|--0-0-0-0-----------------------0-0-0-0--0-0-0-0--0-0-0------------------|
 B|--0-0-0-0-0-0-0-0-0-0-0-0-0-0-0-0-0-0-0--0-0-0-0--0-0-0------------------|

Db|------------------------------------------------------------------------|
G#|------------------------------------------------------------------------|
 E|------------------------------------------------------------------------|
 B|--5-5-5-5-----------------------5-5-5-5--5-5-5-5--5-5-5-----------------|
F#|--5-5-5-5-----------------------5-5-5-5--5-5-5-5--5-5-5-----------------|
 B|--5-5-5-5-5-5-5-5-5-5-5-5-5-5-5-5-5-5-5--5-5-5-5--5-5-5-----------------|


(0:43)"My Eyes...
Db|-------------------------------------|
G#|-------------------------------------|You'll figure out the strumming
 E|-------------------------------------|pattern
 B|---0----------------------5----------|2x
F#|---0----------------------5----------|
 B|---0----------------------5----------|

Intro and verse 1: Lead Guitar

(0:10)
Db|---------------------------------------------------------------|
G#|---------------------------------------------------------------|
 E|---6-6-6/7-7-7-7-7-7-7-7\6-6-6/7-7-7/9-9-9/11-11-11/14-14-14---|
 B|---x-x-x/x-x-x-x-x-x-x-x\x-x-x/x-x-x/x-x-x/x--x--x-/x--x--x----|x10
F#|---4-4-4/5-5-5-5-5-5-5-5\4-4-4/5-5-5/7-7-7/9--9--9-/12-12-12---|
 B|---------------------------------------------------------------|


Pre-Chorus: Rythm guitar

(1:05)"There's no doubt...
Db|-----------------------------------------------------------------------|
G#|-----------------------------------------------------------------------|
 E|-----------------------------------------------------------------------|
 B|-9-----------------------------5------------------------------7--------|
F#|-9-----------------------------5------------------------------7--------|
 B|-9-----------------------------5------------------------------7--------|

Pre-Chorus: Lead Guitar

Db|---19-14---17-14--12--17---12------------|
G#|---------------------------------14------|
 E|-----------------------------------------|
 B|-----------------------------------------|
F#|-----------------------------------------|
 B|-----------------------------------------|


Chorus: Lead Guitar

(you'll figure out the strumming pattern)
Db|------------------5------------|
G#|--7-----8---------7------10----|
 E|--7-----7---------7------9-----|x2
 B|--9-----9----------------11----|
F#|-------------------------------|
 B|-------------------------------|


Chorus: Rythm Guitar
(1:27) "Don't run away...
Db|-------------------------------------------------------------------------|
G#|-------------------------------------------------------------------------|
 E|-------------------------------------------------------------------------|
 B|--9-9-9-9------------5-5-5-5-------------0-0-0-0--------7-7-7-7--7-7-7-7-|
F#|--9-9-9-9------------5-5-5-5-------------0-0-0-0--------7-7-7-7--7-7-7-7-|
 B|--9-9-9-9------------5-5-5-5-------------0-0-0-0--------7-7-7-7--7-7-7-7-|


Post Chorus: Rythm Guitar

Db|-------------------------------------|
G#|-------------------------------------|You'll figure out the strumming
 E|-------------------------------------|pattern
 B|---0----------------------5----------|
F#|---0----------------------5----------|
 B|---0----------------------5----------|

Post Chorus: Lead Guitar

Db|---------------------------------------------------------------|
G#|---------------------------------------------------------------|
 E|---6-6-6/7-7-7-7-7-7-7-7\6-6-6/7-7-7/9-9-9/11-11-11/14-14-14---|
 B|---x-x-x/x-x-x-x-x-x-x-x\x-x-x/x-x-x/x-x-x/x--x--x-/x--x--x----|x2
F#|---4-4-4/5-5-5-5-5-5-5-5\4-4-4/5-5-5/7-7-7/9--9--9-/12-12-12---|
 B|---------------------------------------------------------------|

Verse 2: Rythm Guitar

(this part is palm muted)
Db|---------------------------------------------------------|
G#|---------------------------------------------------------|
 E|---------------------------------------------------------|
 B|--0-0-0-0-----------------------0-0-0-0--0-0-0-0--0-0-0--|
F#|--0-0-0-0-----------------------0-0-0-0--0-0-0-0--0-0-0--|
 B|--0-0-0-0-0-0-0-0-0-0-0-0-0-0-0-0-0-0-0--0-0-0-0--0-0-0--|
                                                                  x2
Db|---------------------------------------------------------|
G#|---------------------------------------------------------|
 E|---------------------------------------------------------|
 B|--5-5-5-5-----------------------5-5-5-5--5-5-5-5--5-5-5--|
F#|--5-5-5-5-----------------------5-5-5-5--5-5-5-5--5-5-5--|
 B|--5-5-5-5-5-5-5-5-5-5-5-5-5-5-5-5-5-5-5--5-5-5-5--5-5-5--|


Pre-Chorus 2: Rythm Guitar

Db|-----------------------------------------------------------------------|
G#|-----------------------------------------------------------------------|
 E|-----------------------------------------------------------------------|
 B|-9-----------------------------5------------------------------7--------|2x
F#|-9-----------------------------5------------------------------7--------|
 B|-9-----------------------------5------------------------------7--------|

Pre Chorus 2: Lead Guitar

Db|---19-14----12--17-14----12--17-----12-------------------|
G#|-----------------------------------------14-----12-------|
 E|---------------------------------------------------14----|
 B|---------------------------------------------------------|
F#|---------------------------------------------------------|
 B|---------------------------------------------------------|

Db|---19-14----12--17-14----12--17-----12------------|
G#|-----------------------------------------14-------|
 E|--------------------------------------------------|
 B|--------------------------------------------------|
F#|--------------------------------------------------|
 B|--------------------------------------------------|

Chorus: Both guitars

Db|-----------------------------------------|
G#|-----------------------------------------|You'll figure out the strumming
 E|-----------------------------------------|pattern
 B|--9-------------5-------------0-------7--|2x
F#|--9-------------5-------------0-------7--|
 B|--9-------------5-------------0-------7--|

Bridge part 1: Lead Guitar (clean)

Db|--------7-------7-------7-------7--------7-------7-------7-------7-|
G#|------7-------7-------7-------7--------8-------8-------8-------8---|
 E|----7-------7-------7-------7--------7-------7-------7-------7-----|
 B|--9-------9-------9-------9--------9-------9-------9-------9-------|
F#|-------------------------------------------------------------------|
 B|-------------------------------------------------------------------|
                                                                       x2
Db|--------5-------5-------5-------5--------5-------5-------5-------5-|
G#|------7-------7-------7-------7--------5-------5-------5-------5---|
 E|----7-------7-------7-------7--------7-------7-------7-------7-----|
 B|--0-------0-------0-------0--------7-------7-------7-------7-------|
F#|-------------------------------------------------------------------|
 B|-------------------------------------------------------------------|


Bridge: Rythm Guitar

(3:08)
Db|-----------------------------------------|
G#|-----------------------------------------|You'll figure out the strumming
 E|-----------------------------------------|pattern
 B|--9-------------5-------------0-------7--|
F#|--9-------------5-------------0-------7--|
 B|--9-------------5-------------0-------7--|


Chorus: Rythm Guitar

Db|-----------------------------------------|
G#|-----------------------------------------|You'll figure out the strumming
 E|-----------------------------------------|pattern
 B|--9-------------5-------------0-------7--|2x
F#|--9-------------5-------------0-------7--|
 B|--9-------------5-------------0-------7--|

Chorus: Lead Guitar

Db|---19-14----12--17-14----12--17-----12------------|
G#|-----------------------------------------14-------|
 E|--------------------------------------------------|
 B|--------------------------------------------------|x2
F#|--------------------------------------------------|
 B|--------------------------------------------------|


Outro: Lead guitar (clean)

Db|--------7-------7-------7-------7--------7-------7-------7-------7-|
G#|------7-------7-------7-------7--------8-------8-------8-------8---|
 E|----7-------7-------7-------7--------7-------7-------7-------7-----|
 B|--9-------9-------9-------9--------9-------9-------9-------9-------|
F#|-------------------------------------------------------------------|
 B|-------------------------------------------------------------------|
                                                                       x2
Db|--------5-------5-------5-------5--------5-------5-------5-------5-|
G#|------7-------7-------7-------7--------5-------5-------5-------5---|
 E|----7-------7-------7-------7--------7-------7-------7-------7-----|
 B|--0-------0-------0-------0--------7-------7-------7-------7-------|
F#|-------------------------------------------------------------------|
 B|-------------------------------------------------------------------|


************************************

| /   slide up
| \   slide down
| h   hammer-on
| p   pull-off
| ~   vibrato
| +   harmonic
| x   Mute note
| b   Bend
| pb  Pre-bend
| br  Bend release
| pbr Pre-bend release
| brb Bend release bend

************************************
Добавлено: 12.08.2013
Другие материалы по этой песне:

Страница создана 10.06.2013
http://primanota.ru/young-guns/i-was-born-i-have-lived-i-will-surely-die-chords.htm
Привет, Гость.
Предлагаем пройти революционный курс по гитаре.
Подарок от PrimaNota.Ru, забирай!