PrimaNota.ru - самый крупный в мире бесплатный архив песенных текстов, аккордов, табулатур и нот


Young Guns - Doa - таба, видео

Регистрация Запомнить меня
Войти через:  Facebook Google Twitter Vk Yandex Mail.ru

Young Guns - Doa - таба, видео

Печатать
Просмотров: 213
Уроки эстрадного вокала в Санкт-Петербурге
Old one was wrong

| /   slide up
| \   slide down
| h   hammer-on
| p   pull-off
| ~   vibrato
| +   harmonic
| x   Mute note
| b   Bend
| pb  Pre-bend
| br  Bend release
| pbr Pre-bend release
| brb Bend release bend

Intro

|----------------------------------------|----------------|
|----------------------------------------|----------------|
|----------------------------------------|----------------|
|----------------------------------------|----------------|
|----------------------------------------|-7-------5------|
|-4-4-5-4--4-4-4--7-7---4-4-5-4--4-4--- |---5--7----------|

Verse:
* 11s not 1s

|---------------------------------------------------------|
|---------------------------------------------------------|
|-----9999------11111111*-----14141414------16161616------|   (x4)
|---------------------------------------------------------|
|-44--7777------9999----------12121212---9--14141414------|
|-44---------55------------77-------------9---------------|



Finish first bar with:

B   |9--7-5-4- |
F#  |9--7-5-4- |
B   |9--7-5-4- |

second:

|-------------------|
|-------------------|
|-------------------|
|-----------15------|
|-14-12-14-------- -|
|-------------------|

third:

B   |9--7-5-4- |
F#  |9--7-5-4- |
B   |9--7-5-4- |

fourth:

|---------------------------------------------------------------------------|
|---------------------------------------------------------------------------|
|---------------------------------------------------------------------------|
|---------------------------------------------------------------------------|
|--------------------3-5-9/-12-12-------------------------------------------|
|-9-9-9--9-9-9--4-7---------------------------------------------------------|


Not figured the bridge yet...

Chorus:
|---------------------------------------------------------------------------------------|
|---------------------------------------------------------------------------------------|
|---------------------------------------------------------------------------------------|
|-444-------------------12-12-12---999--444---------------------------------------------|
|-444---(listen for rhythm)-12-12-12---999--444-----------------------------------------|
|-444-------------------12-12-12---999--444---------------------------------------------|


more to follow.
Добавлено: 12.07.2012
Другие материалы по этой песне:
  • Аккорды и текст

Страница создана 12.07.2012
http://primanota.ru/young-guns/doa-chords.htm
Привет, Гость.
Предлагаем пройти революционный курс по гитаре.
Подарок от PrimaNota.Ru, забирай!