PrimaNota.ru - самый крупный в мире бесплатный архив песенных текстов, аккордов, табулатур и нот


Young Disciples - Apparently Nothin Soul River - бас-таба, видео

Регистрация Запомнить меня
Войти через:  Facebook Google Twitter Vk Yandex Mail.ru

Young Disciples - Apparently Nothin Soul River - бас-таба, видео

Печатать
Просмотров: 95
[Please note - this is the album version (ie 'Soul River' version); the single mix is
different and has a different bassline.]

Young Disciples - Apparently Nothin' (Soul River)

Bass player - Marco Nelson


There're only three different parts to the song really, which I've tabbed here; bear in
mind he does add notes in so these will vary a bit in places . Should be enough to get
started though!

Feel free to add any corrections etc. below


Intro & chorus
G|--------------------------------|--------------------------------|
D|--------------------------------|--------------------------------|
A|--------------------------------|--------------------------------|
E|9-------9-----8h9---8---7---6---|5---0---5---5-p-4---6---7---8---|
  ^       ^       ^       ^        ^       ^       ^       ^

Verse
G|--------------------------------|--------------------------------|
D|----------------------------6---|--------------------------------|
A|4-------4-------4---4-----4-----|7-------7-----4-6-6---6---7-----|
E|--------------4-----------------|----------------------------7---|
  ^       ^       ^       ^        ^       ^       ^       ^

Bridge ('baby is crying...')
G|--------------------------------|--------------------------------|
D|------------4-------------------|------------4-------------------|
A|4-----7-------------------------|4-----7-------------------------|
E|----------------0---4---6---7---|----------------0---4---6---7---|
  ^       ^       ^       ^        ^       ^       ^       ^


Cheers!
Добавлено: 05.08.2015
Другие материалы по этой песне:
  • Аккорды и текст

Страница создана 05.08.2015
http://primanota.ru/young-disciples/apparently-nothin-soul-river-chords.htm
Привет, Гость.
Предлагаем пройти революционный курс по гитаре.
Подарок от PrimaNota.Ru, забирай!