PrimaNota.ru - самый крупный в мире бесплатный архив песенных текстов, аккордов, табулатур и нот


You Me At Six - Time Is Money - таба, бас-таба, видео

Регистрация Запомнить меня
Войти через:  Facebook Google Twitter Vk Yandex Mail.ru

You Me At Six - Time Is Money - таба, бас-таба, видео

Печатать
Просмотров: 194
Уроки эстрадного вокала в Санкт-Петербурге
Couldn't find a tab so I decided to make one myself.
Enjoy!
Comment if you find any mistakes.

Tabbed by: Stripedew (Nick)
Email: thegreennick@gmail.com



(/) Slide Up  (\) Slide Down  (h) Hammer On  (p) Pull Off  (b) Bend (r) Release (v)
Vibrato (.) Palm Mute (~) Let Ring


INTRO 1

(0:00 - 0:11)
E|---------------------------|
B|---------------------------|
G|---------------------------|
D|---------------------------|  x4
A|-------------------6-------|
D|-1-3-1-3-3---3-6-3---1-1-1-|

(0:11 - 0:22)
E|---------------------------------|
B|---------------------------------|
G|---------------------------------|
D|-1-3-1-3-3---3-----3-----1-1-1---|  x4
A|-1-3-1-3-3---3-----3--6--1-1-1---|
D|-1-3-1-3-3---3--6--3-----1-1-1---|


VERSE

(0:23 - 0:33)
E|-------------------|
B|-------------------|
G|-------------------|
D|-1h3p1-6--3\-------|   x4
A|-1h3p1-6--3\-------|
D|-1h3p1-6--3\-------|

(0:33 - 0:44)
E|----------------------------------|
B|----------------------------------|
G|----------------------------------|
D|-1h3p1-6--3--3-3-3--3-3-3---------|  x4
A|-1h3p1-6--3--3-3-3--3-3-3---------|
D|-1h3p1-6--3--3-3-3--3-3-3---------|
               . .    . .

CHORUS

(0:45 - 0:56)
E|-------------------------|
B|-------------------------|
G|-------------------------|
D|-3------11-------13------|
A|-3-x16--11--x15--13--x3--|
D|-3------11-------13------|

(0:56 - 1:07)
E|------------------------|
B|------------------------|
G|------------------------|
D|-3------11-------8------|
A|-3-x16--11--x15--8--x2--|
D|-3------11-------8------|


INTRO 2 (1:07 - 1:11)

E|--------------------------------------|
B|--------------------------------------|
G|--------------------------------------|
D|--------------------------------------|
A|--------6--------------------------6--|
D|--3-6-3---1-1-1---1-3-1-3-3--3-6-3----|


Repeat Verse x1
Then, play the second chorus, the last chords are different

CHORUS

(1:34 - 1:45)
E|-------------------------|
B|-------------------------|
G|-------------------------|
D|-3------11-------13------|
A|-3-x16--11--x15--13--x3--|
D|-3------11-------13------|

(1:45 - 1:56)
E|--------------------|
B|--------------------|
G|--------------------|
D|-3------11----------|
A|-3-x16--11--x18-----|
D|-3------11----------|


BREAKDOWN

(1:56 - 1:58)
E|---------------|
B|---------------|
G|---------------|
D|-3-3-1-3---3~--|
A|-3-3-1-3---3~--|
D|-3-3-1-3---3~--|


(2:04 - 2:06)
E|-----------|
B|-----------|
G|-----------|
D|-1/3\1/3~--|
A|-1/3\1/3~--|
D|-1/3\1/3~--|


(2:08 - 2:09)
E|-----|
B|-----|
G|-----|
D|-3\--|
A|-3\--|
D|-3\--|


(2:10 - 2:51)
E|------------------------------|
B|------------------------------|
G|------------------------------|
D|-3-3-1-3--3--------6---5------| x6
A|-3-3-1-3--3--x3---------------|
D|-3-3-1-3--3-------6-6-5-5-----|


OUTRO

(2:52 - 2:53)
E|------------|
B|------------|
G|------------|
D|-3-3-1-3\---|
A|-3-3-1-3\---|
D|-3-3-1-3\---|
Добавлено: 05.06.2012
Другие материалы по этой песне:

Страница создана 23.05.2012
http://primanota.ru/you-me-at-six/time-is-money-chords.htm
Привет, Гость.
Предлагаем пройти революционный курс по гитаре.
Подарок от PrimaNota.Ru, забирай!