PrimaNota.ru - самый крупный в мире бесплатный архив песенных текстов, аккордов, табулатур и нот


You Me At Six - Taste - таба, видео

Регистрация Запомнить меня
Войти через:  Facebook Google Twitter Vk Yandex Mail.ru

You Me At Six - Taste - таба, видео

Печатать
Просмотров: 192
---------------------------------------------------------------------------
                             Taste – You Me At Six
---------------------------------------------------------------------------
Tabbed by: GuitarGuy196
Email: Bad_Boy.G@hotmail.com

Tuning: Standard

e|----0--------------------------------------------------------------------|
B|------5-3-5-----------------0-------------------0------------------------|
G|-5-----------5---x2-------------5-4-5-------------5-4-5------------------|
D|---------------------------5----------5-------3---------5----------------|
A|-------------------------------------------------------------------------|
E|-------------------------------------------------------------------------|

e|-------------------------------------------------------------------------|
B|-------------------------------------------------------------------------|
G|--9---7-7----9---7-9-10-12----9---7-7----9-9-9-9-9-9-9-9-----------------|
D|--x---x-x----x---x-x-x--x-----x---x-x----x-x-x-x-x-x-x-x-----------------|
A|--7---5-5----7---5-7—8--10----7---5-5----7-7-7-7-7-7-7-7-----------------|
E|-------------------------------------------------------------------------|


Just The Start Of It....


| /  slide up
| \  slide down
| h  hammer-on
| p  pull-off
| ~  vibrato
| +  harmonic
| x  Mute note
===============================================================================
Добавлено: 19.04.2012
Другие материалы по этой песне:
  • Аккорды и текст

Страница создана 17.03.2012
http://primanota.ru/you-me-at-six/taste-chords.htm
Привет, Гость.
Предлагаем пройти революционный курс по гитаре.
Подарок от PrimaNota.Ru, забирай!