PrimaNota.ru - самый крупный в мире бесплатный архив песенных текстов, аккордов, табулатур и нот


You Me At Six - Takes One To Know One - таба, видео

Регистрация Запомнить меня
Войти через:  Facebook Google Twitter Vk Yandex Mail.ru

You Me At Six - Takes One To Know One - таба, видео

Печатать
Просмотров: 93
                                Takes One To Know One
                                    You Me At Six
                             Sinners Never Sleep (Deluxe Edition)
-----------------------------------------------------------------------------
This Is My First Tab Enjoy :)
Monkeywrench98
Standard Tuning : EBGDAE

Intro
E--------------|
B--------------|
G---2--2-------|  X2
D--0-------0---|
A-2---0---0----|
E----2---3-----|

Verse
E--------------|
B--------------|
G---2--2-------|  X6
D--0-------0---|
A-2---0---0----|
E----2---3-----|

You're pretty from afar, but far from pretty
I wish this room would stop spinning
So I could make up my mind
Decide what's wrong, decide what's right
And I'll decide this one in the light
Where I feel alive
My head's filled with thoughts of discontent
Time with you is time not well spent
So I will run and hide

Pre-Chorus
E-------------------------------------|
B-------------------------------------|
G-------------------------------------|
D-9-9-9-9-12-12-12-12-7-7-7-7-5-5-5-5-|
A-9-9-9-9-12-12-12-12-7-7-7-7-5-5-5-5-|
E-7-7-7-7-10-10-10-10-5-5-5-5-3-3-3-3-|
   B5      D5         A5      G5
E-----------------|
B-----------------|
G-----------------|
D-9-9-9-9-5--5--5-|
A-9-9-9-9-5--5--5-|
E-7-7-7-7-3--3--3-|
  B5      G5

I wish, I wish you didn't exist
It's a shame you do
Your plans are sad and not enough
Not foolproof

Chorus
E-------------------------------------------------|
B-------------------------------------------------|
G-7-7-7-7-7-7-7-7-7-7-7-7-------------------------|
D-7-7-7-7-7-7-7-7-7-7-7-7-5-5-5-5-5-5-5-5-5-5-5-5-|   X2
A-5-5-5-5-5-5-5-5-5-5-5-5-5-5-5-5-5-5-5-5-5-5-5-5-|
E-------------------------3-3-3-3-3-3-3-3-3-3-3-3-|
  D5                      G5

E------|
B------|
G------| Let Ring Until Verse 2
D-7----|
A-7----|
E-5----|
  A5

It takes one, it takes one, it takes one, takes one to know one
You're never gonna get it, no, you're never gonna, you're never gonna get it
It takes one, it takes one, it takes one, takes one to know one
You don't know me at all

Verse 2
E--------------|
B--------------|
G---2--2-------|  X4
D--0-------0---|
A-2---0---0----|
E----2---3-----|

On The 2nd Riff Guitar Accompanies With:
P.M
E---------------------------|
B---------------------------|
G-7-7-7-7-------------------|
D-7-7-7-7-4-4-4-4-5-5-5-5---|  X2
A-5-5-5-5-4-4-4-4-5-5-5-5---|
E---------2-2-2-2-3-3-3-3---|
  D5      F#5     G5

Dropping names a day, you must be tired
You're gonna spend your life on the outside
I'll laugh in my spare time
You want to talk, and it says a lot
That on the back foot you don't say that much
You are in a reflective mood

Just Before Pre-Chorus There Is This Little Bit :P
E-----------------|
B-----------------|
G-7-7-7-7-7-7-7-7-|
D-----------------|
A-----------------|
E-----------------|

Pre-Chorus
E-------------------------------------|
B-------------------------------------|
G-------------------------------------|
D-9-9-9-9-12-12-12-12-7-7-7-7-5-5-5-5-|
A-9-9-9-9-12-12-12-12-7-7-7-7-5-5-5-5-|
E-7-7-7-7-10-10-10-10-5-5-5-5-3-3-3-3-|
   B5      D5         A5      G5
E-----------------|
B-----------------|
G-----------------|
D-9-9-9-9-5--5--5-|
A-9-9-9-9-5--5--5-|
E-7-7-7-7-3--3--3-|
  B5      G5

I wish, I wish you didn't exist
It's a shame you do
Your plans are sad and not enough
Not foolproof

Chorus
E-------------------------------------------------|
B-------------------------------------------------|
G-7-7-7-7-7-7-7-7-7-7-7-7-------------------------|
D-7-7-7-7-7-7-7-7-7-7-7-7-5-5-5-5-5-5-5-5-5-5-5-5-|   X2
A-5-5-5-5-5-5-5-5-5-5-5-5-5-5-5-5-5-5-5-5-5-5-5-5-|
E-------------------------3-3-3-3-3-3-3-3-3-3-3-3-|
  D5                      G5

E------|
B------|
G------| Let Ring Out Until Bridge
D-7--9-|
A-7--9-|
E-5--7-|
  A5 B5

It takes one, it takes one, it takes one, takes one to know one
You're never gonna get it, no, you're never gonna, you're never gonna get it
It takes one, it takes one, it takes one, takes one to know one
You don't know me at all

Bridge
Guitar 1
E---------|
B---------|
G-7-7-7-7-|
D---------| X32
A-5-5-5-5-|
E---------|
  D5

Guitar 2 (Come In With Vocals)
P.M
E-----------------------------------------------------------------|
B-----------------------------------------------------------------|
G-----------------------------------------------------------------|
D-9-9-9-9-9-9-9-9-9-9-9-9-9-9-9-9-5-5-5-5-5-5-5-5-5-5-5-5-5-5-5-5-|   X3
A-9-9-9-9-9-9-9-9-9-9-9-9-9-9-9-9-5-5-5-5-5-5-5-5-5-5-5-5-5-5-5-5-|
E-7-7-7-7-7-7-7-7-7-7-7-7-7-7-7-7-3-3-3-3-3-3-3-3-3-3-3-3-3-3-3-3-|
  B5                              G5

[Stop]

Come Back In With Vocals After 'There For Me!? Oh!' *

Guitar 1
E-----------------------------------|
B-------------14----15----15--------|
G-14----16--------------------- X17-|
D---12----12----12----12----12------|
A-----14----14----14----14----14----|
E-----------------------------------|

Guitar 2
E-----------------------------------------------------------------|
B-----------------------------------------------------------------|
G-----------------------------------------------------------------|
D-9-9-9-9-9-9-9-9-9-9-9-9-9-9-9-9-5-5-5-5-5-5-5-5-5-5-5-5-5-5-5-5-|   X5
A-9-9-9-9-9-9-9-9-9-9-9-9-9-9-9-9-5-5-5-5-5-5-5-5-5-5-5-5-5-5-5-5-|
E-7-7-7-7-7-7-7-7-7-7-7-7-7-7-7-7-3-3-3-3-3-3-3-3-3-3-3-3-3-3-3-3-|
  B5                             G5

Are you gonna be, are you gonna be there for
Are you gonna be, are you gonna be there for
Are you gonna be, are you gonna be there for
Are you gonna be, are you gonna be there for
Are you gonna be, are you gonna be there for
Are you gonna be, are you gonna be there for
Are you gonna be, are you gonna be there for
Are you gonna be, are you gonna be there for
Are you gonna be, are you gonna be there for
Are you gonna be, are you gonna be there for
Are you gonna be, are you gonna be there for
Are you gonna be, are you gonna be there for
Are you gonna be, are you gonna be there for
Are you gonna be, are you gonna be there for me?!
There for me?! Oh!*

Are you gonna be, are you gonna be there for
Are you gonna be, are you gonna be there for
Are you gonna be, are you gonna be there
And are you gonna be, are you gonna be there for
Are you gonna be, are you gonna be there for
Are you gonna be, are you gonna be there for
Are you gonna be, are you gonna be there for
Are you gonna be, are you gonna be there for me?!
Are you gonna be, are you gonna be there for (It takes one to know one!)
Are you gonna be, are you gonna be there for (It takes one to know one!)
Are you gonna be, are you gonna be there for (It takes one to know)
Are you gonna be, are you gonna be there for (It takes one to know one!)
Are you gonna be, are you gonna be there for (It takes one to know one!)
Are you gonna be, are you gonna be there for (It takes one to know one!)
Are you gonna be, are you gonna be there for (It takes one to know)
Are you gonna be, are you gonna be there for (It takes one to know one!)

Ending
E--------------------------------|
B-------------14----15----15-----|
G-14----16-----------------------|
D---12----12----12----12----12---|
A-----14----14----14----14----14-|
E--------------------------------|

E------------------|
B------------14h15-|
G-14----16---------|
D---12----12-------|
A-----14----14-----|
E------------------|

Hope You Enjoyed The Tab :)
Добавлено: 11.07.2013
Другие материалы по этой песне:

Страница создана 11.07.2013
http://primanota.ru/you-me-at-six/takes-one-to-know-one-chords.htm
Привет, Гость.
Предлагаем пройти революционный курс по гитаре.
Подарок от PrimaNota.Ru, забирай!