PrimaNota.ru - самый крупный в мире бесплатный архив песенных текстов, аккордов, табулатур и нот


You Me At Six - Little Death - текст песни, таба, видео

Регистрация Запомнить меня
Войти через:  Facebook Google Twitter Vk Yandex Mail.ru

You Me At Six - Little Death - текст песни, таба, видео

Печатать
Просмотров: 293
Artist: You Me At Six
Album: Sinners Never Sleep
Song: Little Death

Tuning: Drop D

My first tab. Think its 100% perfect, tabbed by ear and watching the live lounge 
version. Should be uploading a cover soon so visit my youtube channel RimmoBRFC :D

Intro Chris (Lead) X4

e----------------------------------------------------------------------------|
B--------------------6-6-6-6-6-6---------------------------------------------|
G--6-6-6-5-5-5-8-8-8-------------8-------------------------------------------|
D----------------------------------------------------------------------------|
A----------------------------------------------------------------------------|
D----------------------------------------------------------------------------|

Last time

e--------------------------------------------------------------------------|
B--------------------6-6-6-6-6-6-6-----------------------------------------|
G--6-6-6-5-5-5-8-8-8---------------3(x16)-6(x8)-5(x8)----------------------|
D--------------------------------------------------------------------------|
A--------------------------------------------------------------------------|
D--------------------------------------------------------------------------|

x3

e-----------------------------13-13-13-13-13-13----------------------------|
B--14-14-14-13-13-13-16-16-16-------------------16-------------------------|
G--------------------------------------------------------------------------|
D--------------------------------------------------------------------------|
A--------------------------------------------------------------------------|
D--------------------------------------------------------------------------|

Last Time

e-----------------------------13-13-13-13-13-13----------------------------|
B--14-14-14-13-13-13-16-16-16-------------------16-------------------------|
G--------------------------------------------------15(x9)------------------|
D--------------------------------------------------------------------------|
A--------------------------------------------------------------------------|
D--------------------------------------------------------------------------|

Intro Max (Rhythm) x2

e--------------------------------------------------------------------------|
B--------------------------------------------------------------------------|
G--3------6----------------------------------------------------------------|
D--3(x28)-6(x4)-6------4---------------------------------------------------|
A--1------4-----6(x16)-4(x16)----------------------------------------------|
D---------------6------4---------------------------------------------------|

Verse 1 Chris (Lead) x2

e-----4----------------------------4---------------------------------------|
B--2----1-----------------------2-----1------------------------------------|
G--------------1/3--3---------------------0--0-----------------------------|
D-----------------------------------------------1--------------------------|
A--------------------------------------------------------------------------|
D--------------------------------------------------------------------------|

Last Time

e-----4--------------------------------------------------------------------|
B--2-----1-----------------------------------------------------------------|
G------------0-------------------------------------------------------------|
D--------------------------------------------------------------------------|
A--------------------------------------------------------------------------|
D--------------------------------------------------------------------------|


Chorus 1 Chris (Lead) x2

e--------------------------------------------------------------------------|
B--------------------------------------------------------------------------|
G--3------6-----8------6-------5-------------------------------------------|
D--x(x28)-x(x4)-x(x16)-x(x12)--x(x4)---------------------------------------|
A--1------4-----6------4-------3-------------------------------------------|
D--------------------------------------------------------------------------|

Chorus 1 Max (Rhythm)x2

e--x-x-x-x-----------------------------------------------------------------|
B--x-x-x-x-----------------------------------------------------------------|
G--x-x-x-x-3------6--------------------------------------------------------|
D--x-x-x-x-3(x28)-6(x4)-6------4-------------------------------------------|
A--x-x-x-x-1------4-----6(x16)-4(x16)--------------------------------------|
D--x-x-x-x--------------6------4-------------------------------------------|


Verse 2 Chris (Lead)x2

D--------------------------------------------4--6-----------------------------|
e-----4----------------------------4------------------------------------------|
B--2----1-----------------------2-----1---------------------------------------|
G--------------1/3--3---------------------------------------------------------|
A-----------------------------------------------------------------------------|
D-----------------------------------------------------------------------------|

Last Time

e-----4----------------------------4---------------------------------------|
B--2----1-----------------------2-----1------------------------------------|
G--------------1/3--3---------------------0--------------------------------|
D--------------------------------------------------------------------------|
A--------------------------------------------------------------------------|
D--------------------------------------------------------------------------|


Chorus 2 Chris (Lead)x2

e--------------------------------------------------------------------------|
B--------------------------------------------------------------------------|
G--3------6-----8------6-------5-------------------------------------------|
D--x(x28)-x(x4)-x(x16)-x(x12)--x(x4)---------------------------------------|
A--1------4-----6------4-------3-------------------------------------------|
D--------------------------------------------------------------------------|

Chorus 2 Max (Rhythm)x2

e--x-x-x-x-----------------------------------------------------------------|
B--x-x-x-x-----------------------------------------------------------------|
G--x-x-x-x-3------6--------------------------------------------------------|
D--x-x-x-x-3(x28)-6(x4)-6------4-------------------------------------------|
A--x-x-x-x-1------4-----6(x16)-4(x16)--------------------------------------|
D--x-x-x-x--------------6------4-------------------------------------------|

Interlude Max (Rhythm)x1
   x x x x x x x x x x x x x x x x x x x x x
e--------------------------------------------------------------------------|
B--6---6---6---6---6----6---6---6---6---6----------------------------------|
G---6---6---6---6---6-6--6---6---6---6---6-6-------------------------------|
D----8---8---8---8---8----6---6---6---6---6--------------------------------|
A--------------------------------------------------------------------------|
D--------------------------------------------------------------------------|
   x x x x x x x x x x x
e-------------------------------------0------------------------------------|
B--4---4---4---4---4----4---4---4-----4------------------------------------|
G-------------------------------------0------------------------------------|
D---6---6---6---6---6-6--5---5---5----5------------------------------------|
A----6---6---6---6---6----6---6---6---6------------------------------------|
D--------------------------------------------------------------------------|

Bridge Chris (Lead)x1

e--------------------------------------------------------------------------|
B--------------------------------------------------------------------------|
G--3------6-----8------6-------5-------------------------------------------|
D--x(x28)-x(x4)-x(x16)-x(x12)--x(x4)---------------------------------------|
A--1------4-----6------4-------3-------------------------------------------|
D--------------------------------------------------------------------------|

Bridge Max (Rhythm)

e--x-x-x-x-----------------------------------------------------------------|
B--x-x-x-x-----------------------------------------------------------------|
G--x-x-x-x-3------6--------------------------------------------------------|
D--x-x-x-x-3(x28)-6(x4)-6------4-------------------------------------------|
A--x-x-x-x-1------4-----6(x16)-4(x16)--------------------------------------|
D--x-x-x-x--------------6------4-------------------------------------------|

Bridge Chris (Lead) x3

e--------------------------------------------------------------------------|
B--------------------6-6-6-6-6-6-6-----------------------------------------|
G--6-6-6-5-5-5-8-8-8-------------------------------------------------------|
D--------------------------------------------------------------------------|
A--------------------------------------------------------------------------|
D--------------------------------------------------------------------------|

Last Time

e--------------------------------------------------------------------------|
B--------------------6-6-6-6-6-6-6-----------------------------------------|
G--6-6-6-5-5-5-8-8-8---------------3(x16)-6(x8)-5(x8)----------------------|
D--------------------------------------------------------------------------|
A--------------------------------------------------------------------------|
D--------------------------------------------------------------------------|

Chorus 3 Chris (Lead)x2

e--------------------------------------------------------------------------|
B--------------------------------------------------------------------------|
G--3------6-----8------6-------5-------------------------------------------|
D--x(x28)-x(x4)-x(x16)-x(x12)--x(x4)---------------------------------------|
A--1------4-----6------4-------3-------------------------------------------|
D--------------------------------------------------------------------------|

Chorus 3 Max (Rhythm)x2

e--x-x-x-x-----------------------------------------------------------------|
B--x-x-x-x-----------------------------------------------------------------|
G--x-x-x-x-3------6--------------------------------------------------------|
D--x-x-x-x-3(x28)-6(x4)-6------4-------------------------------------------|
A--x-x-x-x-1------4-----6(x16)-4(x16)--------------------------------------|
D--x-x-x-x--------------6------4-------------------------------------------|

Outro Chris (Lead)

e--------------------------------------------------------------------------|
B--------------------------------------------------------------------------|
G--3-------3-------3-------------------------------------------------------|
D--x(x13)--x(x14)--x(x17)--------------------------------------------------|
A--1-------1-------1-------------------------------------------------------|
D--------------------------------------------------------------------------|

Outro Max (Rhythm)
Chorus 1 Max (Rhythm)x2

e--------------------------------------------------------------------------|
B--------------------------------------------------------------------------|
G--3-------3------3--------------------------------------------------------|
D--3(x13)--3(x14)-3(x17)---------------------------------------------------|
A--1-------1------1--------------------------------------------------------|
D--------------------------------------------------------------------------|

                                 The End
Добавлено: 23.05.2012
Другие материалы по этой песне:

Страница создана 23.05.2012
http://primanota.ru/you-me-at-six/little-death-chords.htm
Привет, Гость.
Предлагаем пройти революционный курс по гитаре.
Подарок от PrimaNota.Ru, забирай!