PrimaNota.ru - самый крупный в мире бесплатный архив песенных текстов, аккордов, табулатур и нот


You Me At Six - Gossip - таба, бас-таба, видео

Регистрация Запомнить меня
Войти через:  Facebook Google Twitter Vk Yandex Mail.ru

You Me At Six - Gossip - таба, бас-таба, видео

Печатать
Просмотров: 278
Bear in mind this is my first tab, so be honest, but not too honest. I'm fairly sure the 
is wrong for rhythm, so any suggestions at all will be much appreciated. But the rest 
pretty confident in. Enjoy this tab, cos YoumeatSix rule.

Tuning : Drop D

Into / all of verse for rhythm

e|-------------------------------------------------|
b|-------------------------------------------------|
g|-------------------------------------------------|
d|-7-7-9--77--7-9-7-9-------5-5-7--55--5-7-5-7-----|
a|-7-7-9--77--7-9-7-9—x2----5-5-7--55--5-7-5-7-x2--|
e|-7-7-9--77--7-9-7-9-------5-5-7--55--5-7-5-7-----|

When drums kick in, lead switches to...

e|--------------------------------------------------------|
b|--------------------------------------------------------|
g|-9-9-11--99—-9/11-9/11---------7-7-9---77—-7/9--7/9-----|
d|-x-x-x---xx— x/x— x/x---x2-----x-x-x---xx—-x/x--x/x---x2|
a|-7-7-9---77— 7/9— 7/9----------5-5-7---55—-5/7--5/7-----|
e|--------------------------------------------------------|


Chorus

Rhythm
e|----------------------------------------------------------------------------|
b|----------------------------------------------------------------------------|
g|----------------------------------------------------------------------------|
d|-22222222-44444444--77777777-9999-7777---22222222-44444444-7777777777777777-|  x2
a|-22222222-44444444--77777777-9999-7777---22222222-44444444-7777777777777777-|
e|-22222222-44444444--77777777-9999-7777---22222222-44444444-7777777777777777-|


Lead
e|------------------------------------------------------|
b|------------------------------------------------------|
g|-9--11--16--18--21--18-------14--13--16--18--21--18---|               It's easy once you listen
d|-x---x---x---x---x---x--------x---x---x---x---x---x---|   and figure out the strum
a|-7---9--14--16--19--16-------12--11--14--16--19--16---|   pattern.
e|------------------------------------------------------|


Play verse and chorus again through once.


Interlude - lead does something that I can't figure out in background, so here's the rhythm.

e|-------------------------------------------------|
b|-------------------------------------------------|
g|-------------------------------------------------|
d|-7-x9-2~-----------------------------------------|
a|-7-x9-2~--x3---On the last time cut the 2 short--|
e|-7-x9-2~-----------------------------------------|


Repeat chorus then go into first bit of intro, end on

d|-5-|
a|-5-|
e|-5-|


Once again, any suggestions would be awesome.
Добавлено: 02.06.2012
Другие материалы по этой песне:

Страница создана 10.03.2012
http://primanota.ru/you-me-at-six/gossip-chords.htm
Привет, Гость.
Предлагаем пройти революционный курс по гитаре.
Подарок от PrimaNota.Ru, забирай!