PrimaNota.ru - самый крупный в мире бесплатный архив песенных текстов, аккордов, табулатур и нот


You Blew It - Your Side - таба, видео

Регистрация Запомнить меня
Войти через:  Facebook Google Twitter Vk Yandex Mail.ru

You Blew It - Your Side - таба, видео

Печатать
Просмотров: 103
Уроки эстрадного вокала в Санкт-Петербурге
-------------------------------------------------------------------------------
                             Your Side - You Blew It!
-------------------------------------------------------------------------------


Tuning: Drop D (DADGBE)

Pretty easy to figure out!


"+"= Harmonic


   Free drinks and unfamiliar faces...
e|---------------------------------------------------------------------------|
B|---------------------------------------------------------------------------|
G|---------------------------------------------------------------------------|
D|---------------------------------------------------------------------------|
A|---12-------12/9/14--12----------------------------------------------------|  X2
D|-0--------0----------------------------------------------------------------|


   I'm by your side
e|---------------------------------------------------------------------------|
B|---------------------------------------------------------------------------|
G|---------------------------------------------------------------------------|
D|---------------------------------------------------------------------------|
A|-5---------------7---------------------------------------------------------|
D|-5---------------7---------------------------------------------------------|

e|---------------------------------------------------------------------------|
B|---------------------------------------------------------------------------|
G|---------------------------------------------------------------------------|
D|---------------------------------------------------------------------------|
A|---12-------12/9/14--12----------------------------------------------------|  X2
D|-0--------0----------------------------------------------------------------|


   I'm by your side...                                     As long as you consider this place home
e|---------------------------------------|             E|--------------------|
B|---------------------------------------|             B|--------------------|
G|---------------------------------------|             G|--------------------|
D|---------------------------------------|             D|--------------------|
A|-5---------------7-------------10----9-|    X2       A|-+12----------------|
D|-5---------------7---------------------|             D|-+12----------------|


   Know that I'm by your side tonight...
e|---------------------------------------------------------------------------|
B|---------------------------------------------------------------------------|
G|---------------------------------------------------------------------------|
D|---------------------------------------------------------------------------|
A|-5555---7777----10-10-10-10----9-9-9-9-------------------------------------|  X2
D|-5555---7777----x--x--x--x-----x-x-x-x-------------------------------------|


   And if you don't come out of this...
e|---------------------------------------------------------------------------|
B|---------------------------------------------------------------------------|
G|---------------------------------------------------------------------------|
D|-10-10-10-10--10-10-10-10-------------------------------13-----------------|
A|-10-10-10-10--10-10-10-10-------------------------------13-----------------|  X3
D|-9--9--9--9---8--8--8--8----------12-------14------12---12-----------------|


   Know you won't go alone
e|---------------------------------------------------------------------------|
B|---------------------------------------------------------------------------|
G|---------------------------------------------------------------------------|
D|-10-10-10-10--10-10-10-10--10-10-10-10-------------------------------------|
A|-10-10-10-10--10-10-10-10--10-10-10-10-------------------------------------|
D|-9--9--9--9---8--8--8--8---7--7--7--7----------3/5-------------------------|


   Cause I'm by your side...
e|---------------------------------------------------------------------------|
B|---------------------------------------------------------------------------|
G|---------------------------------------------------------------------------|
D|---------------------------------------------------------------------------|
A|-5555---7777----10-10-10-10----9-9-9-9-------------------------------------|  X2
D|-5555---7777----x--x--x--x-----x-x-x-x-------------------------------------|


   I'm by your side for all time...
e|---------------------------------------------------------------------------|
B|---------------------------------------------------------------------------|
G|---------------------------------------------------------------------------|
D|---------------------------------------------------------------------------|
A|-5555---7777-------3-------------------------------------------------------|  X2
D|-5555---7777----------3---5------7-----------------------------------------|


************************************

| /   slide up
| \   slide down
| h   hammer-on
| p   pull-off
| ~   vibrato
| +   harmonic
| x   Mute note
| b   Bend
| pb  Pre-bend
| br  Bend release
| pbr Pre-bend release
| brb Bend release bend

************************************
Добавлено: 28.09.2015
Вам также может быть интересно:
Другие материалы по этой песне:
  • Аккорды и текст

Страница создана 28.09.2015
http://primanota.ru/you-blew-it/your-side-chords.htm
Привет, Гость.
Предлагаем пройти революционный курс по гитаре.
Подарок от PrimaNota.Ru, забирай!