PrimaNota.ru - самый крупный в мире бесплатный архив песенных текстов, аккордов, табулатур и нот


You Blew It - The Fifties - таба, видео

Регистрация Запомнить меня
Войти через:  Facebook Google Twitter Vk Yandex Mail.ru

You Blew It - The Fifties - таба, видео

Печатать
Просмотров: 69
Artist: You Blew It!
Title: The Fifties
Tuning:  C# G# C# F G# C#
This sounds pretty accurate. If you have any corrections or suggestions, or if I 
made a typo, feel free to email me. 
Please share this/post elsewhere, just please give me credit.
Tabbed by: Philip Tebby. email: capn.jazz@hotmail.com

You Blew It!: 
http://topshelfrecords.com/tsr2/_pages/artist_you_blew_it.php
http://youblewit.bandcamp.com/


Part 1:

"I've stowed away..."

C#- ------------------------------------|
G#- --------0-------0-------0-------0---|
F - ----0-------0-------0-------0-------| 
C#- ------------------------------------|
G#- ------------------------------------|
C#- --5---5---5---5---5---5---5---5-----|

C#- ------------------------------------|
G#- --------0-------0-------0-------0---|
F - ----0-------0-------0-------0-------| 
C#- ------------------------------------|
G#- ------------------------------------|  
C#- --0---0---0---0---2---2---4---4-----| 


Part 2:

"It's not that I lied..."

C#- ------------------------------------|
G#- ------------------------------------|
F - --------5-------5-------5-------5---| 
C#- ----0-------0-------0-------0-------|
G#- ------------------------------------|
C#- --5---5---5---5---5---5---5---5-----|


C#- ------------------------------------|
G#- ------------------------------------|
F - --------3-------3-------3-------3---| 
C#- ----0-------0-------0-------0-------|
G#- ------------------------------------| 
C#- --0---0---0---0---2---2---2---2-----| 

Part 3:

"Ohhhhhh..."

C#- ----------------------------|
G#- --------0-------0-------0---|
F - ----0-------0-------0-------| 
C#- ----------------------------|
G#- ----------------------------|
C#- --5---5---5---5---4---4-----|

C#- ------------------------------------|
G#- --------0-------0-------0-------0---|
F - ----0-------0-------0-------0-------| 
C#- ------------------------------------|
G#- ------------------------------------|
C#- --2---2---2---2---2---2---2---2-----|


Part 4:

"I just think that it's about..."

C#- ------------------------------------|
G#- ------------------------------------|
F - -------12------12------12------12---|
C#- ----0-------0-------0-------0-------|
G#- ------------------------------------|
C#- -12--12--12--12--11--11--11--11-----|

C#- ------------------------------------|
G#- ------------------------------------|
F - -------12------12------12------12---|
C#- ----0-------0-------0-------0-------|
G#- ------------------------------------|
C#- -10--10--10--10---9---9---9---9-----|


Riff:

C#- -------------------------------------------|
G#- ----4h5p4p0--------------------0-------0---|
F - ----------------3/5\3------0-------0-------| 
C#- -------------------------------------------|
G#- -------------------------------------------|
C#- --5----------0-----------2---2---4---4-----|



Song outline:

Part 1 x4
Part 2 x2
Part 3 x2
Part 4 x2
Riff x4
Part 1 x2
Part 3 x2
Part 4 x3

Lyrics:

I've stowed away everything in boxes and old spaces trying to keep my senses.
The only place I want to be is listening to Elvis in your front seat, faking a life in the fifties.
It's not that I lied, it's just hard to say that I tried.
I just think that it's about time that I stopped falling for every beautiful set 
of brown eyes just like your brown eyes.
Добавлено: 21.06.2013
Другие материалы по этой песне:
  • Аккорды и текст

Страница создана 20.06.2013
http://primanota.ru/you-blew-it/the-fifties-chords.htm
Привет, Гость.
Предлагаем пройти революционный курс по гитаре.
Подарок от PrimaNota.Ru, забирай!