PrimaNota.ru - самый крупный в мире бесплатный архив песенных текстов, аккордов, табулатур и нот


You am I - How Much Is Enough - аккорды и текст, таба, видео

Регистрация Запомнить меня
Войти через:  Facebook Google Twitter Vk Yandex Mail.ru

You am I - How Much Is Enough - аккорды и текст, таба, видео

Печатать
Просмотров: 85
Авторы музыки: Andy Kent, Rusty Hopkinson, Tim Rogers

How Much Is Enough
You am I
HOW MUCH IS ENOUGH-YOU AM I(ROGERS/YOU AM I)
Tabbed by Oliver Watkins (ofwat1@student.monash.edu.au)

Capo on 1st fret

(tabbing relative to capo)

  D9		  D6		 D9		 D6

e--------------------------------------------------------
---------------------------------------------------------
-----9--9-9-9-------9--9-9-9-------9--9-9-9--------9--9-9-9----
-----7--7-7-7-------8--8-8-8-------7--7-7-7--------8--8-8-8-------
---5------5-5-----5------5-5-----5------5-5------5------5-5-----
E-------------------------------------------------------------

							 "...would it stain..



   D9  D6  D9  D6  	    D9
		   Would it ...
       D6                       D9          
If the lights fell down ...
	  D6                        D9                          
And each face began to ...
    D6      A  Asus4             
How much ...
Asus4  A                     F#min
Did you ever wanna ...
                   Bm
with everybody ...


 x2
e----------------------------------------------
B--3-3-3-3-3-3-3-3-0-0-0-0-0-0-0-0----------
G----------------------------------------------
D----------------------------------------------
A-----------------------------------------------
E-----------------------------------------------

Verse 2:
       D9	              D6          D9
In the morning when your ...
    D6           			      D9
The last of the bread and ...
 
Chorus:
    D6      A  Asus4
How much is ...
Asus4  A		     F#min                      
Did you ever wanna ...
		   Bm
with ...

G5
Did you ever want to ....
G#5 (or G/G#... ie. [45----] i think)
Or throw a party just to ...
G                     
Did you ever want ....

Interlude: D9 D6

Verse 3:
               D9      
Would you ...
        D6		      D9      
To the dealer with ...
        D6			     D9                                  
And you burn and break ....

Chorus:
    D6       A  Asus4
How much is ...
Asus4 A 		  F#min       
Did you ever ...
                  Bm            
with somebody ...
G5
Offered up some ...
G/G#
Never ever be ...
G5                                                                  
Did you ever want ....

Interlude: D6 D9 X8


e--------------------------------------------------3--3-3-3--------------
---------------------------------------------------3--3-3-3----3--3-3-3--
---7--7-7-7----7--7-7-7----4--4-4-4----2--2-2-2----0--0-0-0----2--2-2-2--
---7--7-7-7----7--7-7-7----4--4-4-4----2--2-2-2----0--0-0-0----0--0-0-0--
-5-5--5-5-5--4-4--4-4-4--2-2--2-2-2--0-0--0-0-0--------------------------
E------------------------------------------------3-3--3-3-3--2-----------


e----3--3-3-3------------------
-----3--3-3-3----3-------------
-----0--0-0-0----2-------------
-----0--0-0-0----0------0h2----  (repeat 6 times)
--------------------0h2--------
E--3-3--3-3-3----2-------------


Lost and fell do you ...

How ...

Lost and fell do ...

Just ...

     
Добавлено: 02.10.2013
Другие материалы по этой песне:
  • Аккорды и текст

Страница создана 30.04.2012
http://primanota.ru/you-am-i/how-much-is-enough--chords.htm
Привет, Гость.
Предлагаем пройти революционный курс по гитаре.
Подарок от PrimaNota.Ru, забирай!