PrimaNota.ru - самый крупный в мире бесплатный архив песенных текстов, аккордов, табулатур и нот


You am I - Friends Like You - таба, видео

Регистрация Запомнить меня
Войти через:  Facebook Google Twitter Vk Yandex Mail.ru

You am I - Friends Like You - таба, видео

Печатать
Просмотров: 192
Уроки эстрадного вокала в Санкт-Петербурге
 
Main/Intro Riff:
e|------------------------X4-|-------|
B|---------------------------|-------|
G|---------------------------|-------|
D|---55---55----33-3-44-4----|-33-44-|
A|---33-6-33-6--11-1-22-2----|-11-22-|
E|---------------------------|-------|

Verse:
C G F Em F Am

Verse Riff:
e|-----------------------------------|
B|---8-8-666-555---------------------|
G|---5-5-555-555---------------------|
D|-----------------------------------|
A|-----------------------------------|
E|-----------------------------------|

Chorus:   
    Part 1      Part 2      Part 3  
e|------------|----------|-------------|
B|------------|----------|-------------|
G|------------|----------|-------------| < Play Part 3 
D|---55-------|--55------|-------------|  Only On First Chorus
A|---33-55-33-|--33-5-33~|-3~-3~-3~-3~-|
E|------33-11-|-----3-11~|-1~-1~-1~-1~-|

Main Riff X4
Verse X2
Chorus P1 X4
Chorus P2
Добавлено: 07.09.2013
Другие материалы по этой песне:
  • Аккорды и текст

Страница создана 07.09.2013
http://primanota.ru/you-am-i/friends-like-you-chords.htm
Привет, Гость.
Предлагаем пройти революционный курс по гитаре.
Подарок от PrimaNota.Ru, забирай!