PrimaNota.ru - самый крупный в мире бесплатный архив песенных текстов, аккордов, табулатур и нот


Yoko Takahashi - Cruel Angel Thesis - таба, видео

Регистрация Запомнить меня
Войти через:  Facebook Google Twitter Vk Yandex Mail.ru

Yoko Takahashi - Cruel Angel Thesis - таба, видео

Печатать
Просмотров: 287
Уроки эстрадного вокала в Санкт-Петербурге
ZANKOKU NA TENSHI NO TEEZE:

Intro: x2

e|--------------------------------------------------|----------------------------------------------|
B|------------------------------11------------------|------11--13----------11--11------11--11--13--|
G|----------10------10--10--10------13--12--10--12--|--12----------10--------------12--------------|
D|--10--13------13----------------------------------|------------------13--------------------------|
A|--------------------------------------------------|----------------------------------------------|
E|--------------------------------------------------|----------------------------------------------|


Verse/Estrofa:

e|------------------------------------|----------------------------------------------|
B|------------------------------------|----------------------------------------------|
G|------------------------10----------|------12--13--12--10------10--12--13--12------|
D|--13------------13--13--------------|--13------------------13------------------10--|
A|------13--13----------------13--13--|----------------------------------------------|
E|------------------------------------|----------------------------------------------|

e|----------------------------------------------------|-------------------------------------|
B|----------------------------------------------------|-------------------------------------|
G|--------------------------------10--13--12--10------|--10--12--10--9--10------------------|
D|--10--12--13--13--12--12----13------------------13--|---------------------10--10--12--12--|
A|----------------------------------------------------|-------------------------------------|
E|----------------------------------------------------|-------------------------------------|

e|------------------------------------|----------------------------------------------|
B|------------------------------------|----------------------------------------------|
G|------------------------10----------|------12--13--12--10------10--12--13--12------|
D|--13------------13--13--------------|--13------------------13------------------10--|
A|------13--13----------------13--13--|----------------------------------------------|
E|------------------------------------|----------------------------------------------|

e|----------------------------------------------------|---------------------------------|
B|----------------------------------------------------|---------------------------------|
G|--------------------------------10--13--12--10------|--10--12--10--9--10--12--13--12--|
D|--10--12--13--13--12--12----13------------------13--|---------------------------------|
A|----------------------------------------------------|---------------------------------|
E|----------------------------------------------------|---------------------------------|


Pre-Chorus/Pre-Estribillo:

e|------------------------------------------------------------------------------|
B|------------------------------------------------------------------------------|
G|--------------------------10--10------------------------------10--------------|
D|--13--13--12--13--13--12----------13--12--10--12--13--13--12------12--10------|
A|--------------------------------------------------------------------------13--|
E|------------------------------------------------------------------------------|

e|------------------------------------------------------------------------------|
B|------------------------------------------------------------------------------|
G|--------------------------10--10--------------10--12--13--12--10------10--12--|
D|--13--13--12--13--13--12----------13--12--13----------------------13----------|
A|------------------------------------------------------------------------------|
E|------------------------------------------------------------------------------|


Chorus/Estribillo:

e|--------------------------------------------------|--------------------------------------------------|
B|------------------------------11------------------|------11--13--------------------------------------|
G|----------10------10--10--10------13--12--10--12--|--12----------10----------------------------------|
D|--10--13------13----------------------------------|------------------13--12--12--10--12--13--13--13--|
A|--------------------------------------------------|--------------------------------------------------|
E|--------------------------------------------------|--------------------------------------------------|

e|--------------------------------------------------|----------------------------------------------|
B|------------------------------11------------------|------11--13----------11--11------11--11--13--|
G|----------10------10--10--10------13--12--10--12--|--12----------10--------------12--------------|
D|--10--13------13----------------------------------|------------------13--------------------------|
A|--------------------------------------------------|----------------------------------------------|
E|--------------------------------------------------|----------------------------------------------|

e|--------------------------------------------------|----------------------------------------------|
B|------------------------------11------------------|------11--13----------11--11------11--11--13--|
G|----------10------10--10--10------13--12--10--12--|--12----------10--------------12--------------|
D|--10--13------13----------------------------------|------------------13--------------------------|
A|--------------------------------------------------|----------------------------------------------|
E|--------------------------------------------------|----------------------------------------------|

Tabs by Fefe - Tron544
Добавлено: 09.05.2016
Другие материалы по этой песне:
  • Аккорды и текст

Страница создана 09.05.2016
http://primanota.ru/yoko-takahashi/cruel-angel-thesis-chords.htm
Привет, Гость.
Предлагаем пройти революционный курс по гитаре.
Подарок от PrimaNota.Ru, забирай!