PrimaNota.ru - самый крупный в мире бесплатный архив песенных текстов, аккордов, табулатур и нот


Yoko Kanno - Take A Little Hand - таба, видео

Регистрация Запомнить меня
Войти через:  Facebook Google Twitter Vk Yandex Mail.ru

Yoko Kanno - Take A Little Hand - таба, видео

Печатать
Просмотров: 124
-------------------------------------------------------------------------------
              Take a Little Hand - Yoko Kanno
-------------------------------------------------------------------------------

Tabbed by: XCrusherX@gmail.com

Tuning: Standard, capo on the 3rd fret

This tab is for the main guitar (dominant on the right speaker)
Since the other one only has some single notes occasionally I didn't think it needed

to be here as well.

Intro:

e|-----0--------0------------5----------0-----------0------3-2h3p2-0---------|
b|----------3-----3------3-------3--------3-------3------3-------------------|
g|---2----2---2--------0---0---0---0----------2--------0---------------2-0---|
D|-3-----------------5----------------3-----3---3--------------------2-----2-|
A|---------------------------------------------------------------------------|
E|---------------------------------------------------------------------------|

e|-------0-------------5-------5-0--------------------3-2h3p2-0--------5-----|
b|---3-----3---3-----3-------3-----------3---3------3----------------3-------|
g|-----2-----2-----0-------0---------2-----2---2--0----------------2---------|
D|-3-------3-----5-------5---------3---3-------------------------2-----------|
A|---------------------------------------------------------------------------|
E|---------------------------------------------------------------------------|

e|-----------0-----------5-----------0----------------2-2h3p2-0--------------|
b|-------3-----------3-----------------3------------3------------------------|
g|---2-----2---2---0---0-----0-----2-------2---2--0---------------2----------|
D|-3---3---------5---------5---0-3-------0---3------------------2------------|
A|---------------------------------------------------------------------------|
E|---------------------------------------------------------------------------|

e|-0--0--3-3----------------3--5--|
b|-3--3--1-3--------------3----3--|
g|-2--0--2-2------------5------2--|
D|-0--5---------------5--------0--|
A|------------------3-------------|
E|-----------------------------3--|



Verse 1:

e|----------------------0----0---|
b|-------3----3------------------|
g|-4---4----0---0-2---2----2---2-| x6
D|---2--------------0---0--------|
A|-0-----3-----------------------|
E|----------------3--------------|

e|-------------------------------|
b|-------3----3------------------|
g|-4---4----0---0-2---2----------|
D|---2--------------0---0--------|
A|-0-----3-----------------------|
E|----------------3--------------|

e|----------------------0----0---|
b|-------3----3------------------|
g|-4---4----0---0-2---2----2---2-| x3
D|---2--------------0---0--------|
A|-0-----3-----------------------|
E|----------------3--------------|

e|-------------------------------|
b|-------3----3------------------|
g|-4---4----0---0-2---2---0------|
D|---2--------------0---0--------|
A|-0-----3-----------------------|
E|----------------3--------------|

e|-------------------------------|
b|-------------3-----------------|
g|-----0-----2-2-----------------|
D|---------0---0-----------------|
A|---3---------x-----------------|
E|-1-----3-----3-----------------|



Chorus:
Keep in mind that although there are variations all the time you basically just hold a 
few chords
and play single notes of them, so you don't need to learn this 1:1 and can still play a nice
sounding version of this song.

e|-------------------------------------0--------------------------------|
b|---------3---------------3-----3---------3-----3----------------------|
g|-----2-----2---2-----2-------2-------------2----------------------2-0-|
D|---3---3-----3-----0---0---0-------3---3-----3------0-5-4h5p4---2-----|
A|----------------------------------------------------------------------|
E|-1---------------3---------------1----------------3-----------0-------|

e|-----0----------------------------------------------------------------|
b|---------3-----------3-------3-----------3----------------------------|
g|-----------2---2-2-------2-----2-----2-----2---2------------------2---|
D|---3---3-----3-----0---0---0-------3---3-----3------0-5-4h5p4---2-----|
A|----------------------------------------------------------------------|
E|-1---------------3---------------1----------------3-----------0-------|

e|-0--------------------0----0---|
b|-------3-----------------------|
g|-----2------0---2---2----2---2-|
D|---2------2---2---0------------|
A|-0-----3-----------------------|
E|----------------3--------------|



Verse 2:

e|----------------------0----0---|
b|-------3----3------------------|
g|-4---4----0---0-2---2----2---2-| x4
D|---2--------------0---0--------|
A|-0-----3-----------------------|
E|----------------3--------------|

e|-------------------------------|
b|-------3----3------------------|
g|-4---4----0---0-2---2----------|
D|---2--------------0---0--------|
A|-0-----3-----------------------|
E|----------------3--------------|

e|-------------------------------|
b|-------------------------------|
g|-----0-----2-0-----------------|
D|---------0-----0---------------|
A|---3---------------------------|
E|-1-----3-----------------------|



Chorus:

e|-------0-----------------------------0---------------------------0---|
b|-----3-------3-----------3---------------3---3---------------------3-|
g|-----------2---2-----2-------2---------2-------2---------------2-----|
D|---3-----3---------0---0---0---0---3-------3-------0-5-4h5p4-2-------|
A|---------------------------------------------------------------------|
E|-1---------------3---------------1---------------3-----------0-------|

e|-----0---------------------------------------------------------------|
b|---------3-----3-----3-------3---------3---------------------------3-|
g|-----------2-------------2-----2-----2-----2---2-----------------2---|
D|---3---3-----3-----0---0---0-------3-----0---------0-5-4h5p4---2-----|
A|---------------------------------------------------------------------|
E|-1---------------3---------------1-----------1---3-----------0-------|

e|---------0-------------------------------0-------------------------0-|
b|-----3-----3---------3-------3-----------------3---------------------|
g|-------2-------2---------2-----2-----2-------2-------------------2---|
D|---3---------3-----0---0---0-------3---3---3-------0-5-4h5p4---2-----|
A|---------------------------------------------------------------------|
E|-1---------------3---------------1---------------3-----------0-------|

e|-----0------------------------------------------------------------5--x-x-|
b|---------3-----3---------3-----3-------3-----3--------------------3--x-x-|
g|-----------2---------2-------2-------2-----2---2------------------2--x-x-|
D|---3---3-----3-----0---0---0-------3-----0---------0-5-4h5p4---2--2--x-x-|
A|------------------------------------------------------------------0--x-x-|
E|-1---------------3---------------1-----------1---3-----------0-----------|



Outro:

e|-5-----1-----3----5-|
b|-3-----1-----3----3-|
g|-2-----0-----0----2-| x6
D|-2-----3-----5----2-|
A|-0-----3-----5----0-|
E|--------------------|
Chords played multiple times with some dead notes/percussion noises -> listen to the

song

e|-0--0--3-3---|
b|-3--3--1-3---|
g|-2--0--2-2---|
D|-0--5--------|
A|-------------|
E|-------------|


************************************

| /   slide up
| \   slide down
| h   hammer-on
| p   pull-off
| ~   vibrato
| +   harmonic
| x   Mute note
| b   Bend
| pb  Pre-bend
| br  Bend release
| pbr Pre-bend release
| brb Bend release bend

************************************
Добавлено: 29.10.2013
Другие материалы по этой песне:
  • Аккорды и текст

Страница создана 29.10.2013
http://primanota.ru/yoko-kanno/take-a-little-hand-chords.htm
Привет, Гость.
Предлагаем пройти революционный курс по гитаре.
Подарок от PrimaNota.Ru, забирай!