PrimaNota.ru - самый крупный в мире бесплатный архив песенных текстов, аккордов, табулатур и нот


Yokaizu Ashikaga - Smile Through The Rain - таба

Регистрация Запомнить меня
Войти через:  Facebook Google Twitter Vk Yandex Mail.ru

Yokaizu Ashikaga - Smile Through The Rain - таба

Печатать
Просмотров: 85
Well every one thank you for chooseing to be interested in my
newest song sofar here is the intro i will post more as I go.
          Smile Through the Rain - Yokaizu Ashikaga
------------------------------------------------------------------
Tabbed by:Yokaizu Ashikaga
E-mail:pokemonjake101@gmail.com

Tuning: Standard

e|-----6------6------6------5-------5------5------8------8------8-|
B|---4------4------4------3-------3------3------6------6------6---|
G|-5------5------5------4------4-------4------7------7------7-----|
D|----------------------------------------------------------------|
A|----------------------------------------------------------------|
E|----------------------------------------------------------------|

e|-----10------10------10------8------8------8------7------7-----7-|
B|---8-------8-------8-------6------6------6------5------5------5--|
G|-9-------9-------9-------7------7------7------6------6------6----|
D|-----------------------------------------------------------------|
A|-----------------------------------------------------------------|
E|-----------------------------------------------------------------|




************************************

| /   slide up
| \   slide down
| h   hammer-on
| p   pull-off
| ~   vibrato
| +   harmonic
| x   Mute note
| b   Bend
| pb  Pre-bend
| br  Bend release
| pbr Pre-bend release
| brb Bend release bend

************************************
Добавлено: 02.01.2016
Другие материалы по этой песне:
  • Аккорды и текст

Страница создана 02.01.2016
http://primanota.ru/yokaizu-ashikaga/smile-through-rain-chords.htm
Привет, Гость.
Предлагаем пройти революционный курс по гитаре.
Подарок от PrimaNota.Ru, забирай!