PrimaNota.ru - самый крупный в мире бесплатный архив песенных текстов, аккордов, табулатур и нот


Yohio - Sky Limit - таба, видео

Регистрация Запомнить меня
Войти через:  Facebook Google Twitter Vk Yandex Mail.ru

Yohio - Sky Limit - таба, видео

Печатать
Просмотров: 555
Авторы музыки: YOHIO
Авторы текста: YOHIO
Tuning: Drop B (B, F#, B, E, G#, Db) Low to high

This is my first submission and I kind of suck at working songs out so if there are any 
mistakes, I apologise. I watched some videos afterwards as well and the positions much 
up so I'm pretty confident with this.

This tab is just rhythm but here is the synth melody. You play the last bit on the 
fourth time.

Db|------------------------------|--------|
G#|------------------------------|--------|
E |------------------------------|--------|
B |------------------------------|-10-8-6-|
F#|--3-3-3--4--4--6--6--8--6--8--|--------|
B |------------------------------|--------|


Intro for Rhythm Guitar (Starts after the synth plays the melody four times)

Pretty much all palm muted

Db|--------|
G#|--------|
E |--5-5-5-|
B |--5-5-5-|
F#|--3-3-3-|
B |--------|
   
Db|-------------------------------------|
G#|-------------------------------------|
E |--6-6-6-6--8-8-8-8-------------5-5-5-|
B |--6-6-6-6--8-8-8-8--3-3-3-3-3--5-5-5-| X 3
F#|--4-4-4-4--6-6-6-6--3-3-3-3-3--3-3-3-|
B |--------------------3-3-3-3-3--------|

Db|-------------------------------------|
G#|-------------------------------------|
E |--6-6-6-6----------------------5-5-5-|
B |--6-6-6-6--1-1-1-1--3-3-3-3-3--5-5-5-| X 1
F#|--4-4-4-4--1-1-1-1--3-3-3-3-3--3-3-3-|
B |-----------1-1-1-1--3-3-3-3-3--------|


Verse is similar but with a slight variation (Still palm muted) x 4

Db|-------------------------------------|
G#|-------------------------------------|  
E |--6-6-6-6--5-5-5-5-------------5-5-5-|
B |--6-6-6-6--5-5-5-5--3-3-3-3-3--5-5-5-|
F#|--4-4-4-4--3-3-3-3--3-3-3-3-3--3-3-3-|
B |--------------------3-3-3-3-3--------|

Db|-------------------------------------|
G#|-------------------------------------|
E |--6-6-6-6--8-8-8-8-------------5-5-5-|
B |--6-6-6-6--8-8-8-8--3-3-3-3-3--5-5-5-|
F#|--4-4-4-4--6-6-6-6--3-3-3-3-3--3-3-3-|
B |--------------------3-3-3-3-3--------|



Then a short pause...

Chorus

I strum the chords quite fast but you can just hold them if you want.

Db|---------------------------------|
G#|---------------------------------|
E |--6~------8~------5~---8~---10~--|
B |--x~------x~------x~---x~---x-~--|
F#|--4~------6~------3~---6~---8 ~--|
B |---------------------------------|

Db|---------------------------------|
G#|---------------------------------|
E |--6~------8~------10~------------|
B |--x~------x~------x-~------------|
F#|--4~------6~------8 ~------------|
B |---------------------------------|

Db|---------------------------------|
G#|---------------------------------|
E |--6~------8~------5~---8~---10~--|
B |--x~------x~------x~---x~---x-~--|
F#|--4~------6~------3~---6~---8 ~--|
B |---------------------------------|

Db|---------------------------------|
G#|---------------------------------|
E |--6~------8~------10~------------|
B |--x~------x~------x-~------------|
F#|--4~------6~------8 ~------------|
B |---------------------------------|

Breakdown

Pretty much that repeated several times with fills in between but I haven't worked them out.

Db|---------------------------------------------------|
G#|---------------------------------------------------|
E |---------------------------------------------------|
B |--1--0--0----1--0--0----1--0--0----0-0-0-0-0-0-0-0-|
F#|--1--0--0----1--0--0----1--0--0----0-0-0-0-0-0-0-0-|
B |--1--0--0----1--0--0----1--0--0----0-0-0-0-0-0-0-0-|

Db|---------------------------------------------------|
G#|---------------------------------------------------|
E |---------------------------------------------------|
B |--1--0--0----1--0--0----1--0--0----1--0--0--0------|
F#|--1--0--0----1--0--0----1--0--0----1--0--0--0------|
B |--1--0--0----1--0--0----1--0--0----1--0--0--0------|

Db|---------------------------------------------------|
G#|---------------------------------------------------|
E |---------------------------------------------------|
B |--1--0--0----1--0--0----1--0--0----0-0-0-0-0-0-0-0-|
F#|--1--0--0----1--0--0----1--0--0----0-0-0-0-0-0-0-0-|
B |--1--0--0----1--0--0----1--0--0----0-0-0-0-0-0-0-0-|

Db|---------------------------------------------------|
G#|---------------------------------------------------|
E |---------------------------------------------------|
B |--1--0--0----1--0--0----1--0--0----1--0--0--0------|
F#|--1--0--0----1--0--0----1--0--0----1--0--0--0------|
B |--1--0--0----1--0--0----1--0--0----1--0--0--0------|


Verse repeats but only for half as long


Chorus repeats


Intro repeats


Intro again while the guitar solo is happening


Verse repeats


Chorus repeats twice


Breakdown repeats


End

http://ameblo.jp/yohio
Добавлено: 19.09.2013
Другие материалы по этой песне:

Страница создана 10.08.2013
http://primanota.ru/yohio/sky-limit-chords.htm
Привет, Гость.
Предлагаем пройти революционный курс по гитаре.
Подарок от PrimaNota.Ru, забирай!