PrimaNota.ru - самый крупный в мире бесплатный архив песенных текстов, аккордов, табулатур и нот


Yohio - Aggressive Beauty - таба, видео

Регистрация Запомнить меня
Войти через:  Facebook Google Twitter Vk Yandex Mail.ru

Yohio - Aggressive Beauty - таба, видео

Печатать
Просмотров: 96
Уроки эстрадного вокала в Санкт-Петербурге
Авторы музыки: YOHIO

-------------------------------------------------------------------------------
                             Aggressive Beauty - YOHIO
-------------------------------------------------------------------------------

Tabbed by: Emi M
E-mail: emsaritr1125@gmail.com

Tuning: Standard

FIRST TAB ON THE INTERNET FOR THIS SONG!!

That being said, this is probably not 100%, since this is only my second tab yet.
I wrote this all down by ear, in standard tuning. I'm not sure if the original song uses standard or not.
This song was THE song that inspired me to pick up guitar in the first place. So I figured it was only right 
to pay homage. Listed as intermediate because playing it up to YOHIO's speed is a challenge.

----------------------------------------------------------------------------------------------------

**INTRO - PLAY 4X**

e|-12----12-15-14-12-10-7-8---8-10-11----11-14-|-2nd time end on 12, last time on 11|
B|----11--------------------8---------11-------|------------------------------------|
G|----------------------------------------------------------------------------------|
D|----------------------------------------------------------------------------------|
A|----------------------------------------------------------------------------------|
E|----------------------------------------------------------------------------------|


*******
☆☆☆
e|------------------------------------17-15\14----15-14h15p--13-12h13p--12-10-11brb~|
B|--------------------------11/12/13------------------------------------------------|
G|-12-14-16-18-X2-15-17-15----------------------------------------------------------|
D|----------------------------------------------------------------------------------|
A|----------------------------------------------------------------------------------|
E|----------------------------------------------------------------------------------|

e|------------------------------------------------------------------------------|
B|-13\12---14-15-17--17brb17--15-15\14---------------------------14brb----------|
G|---------------------------------------14\13\12\11---11h12h13p-------13\12\11-|
D|------------------------------------------------------------------------------|
A|------------------------------------------------------------------------------|
E|------------------------------------------------------------------------------|

e|---------------------------------------------------------------------------|
B|---------------------------------------------------------------------------|
G|---------------------------------------------------------------------------|
D|--------------------------------------------------------------17-----------|
A|-14-12-10-9-8-8h9p-------------------10h9p-12h11p-14-16-17\15----15h14h13p-|
E|-------------------palm x-12-13-14-----------------------------------------|

e|---------------------------17--------------------------------------|
B|------------------14/15/16----16------~~15-14-13~~-----------------|
G|-11/12/13/14/15/16------------------------------------16--16\15\14-|
D|-------------------------------------------------------------------|
A|-------------------------------------------------------------------|
E|-------------------------------------------------------------------|

e|---------------------------------------------------------------------------|
B|---------------------------------------------------------------------------|
G|---------------------------------------------------------------------------|
D|-16-14-12-10-11-13-11-10-13-12----12h11p-13h12p-14h13p-15h14p-16h15p-17h16p|
A|---------------------------------------------------------------------------|
E|---------------------------------------------------------------------------|

^ TIME-STAMP * 1:02 ^

e|-17-15h16p--13-14--~19brb~-19-16-15--☆☆☆☆-------------------------------------|
B|---------------------------------------------------------------------------------|
G|---------------------------------------------------------------------------------|
D|-------------------------------------12--9-10-11---13--9-10-11---14--11-12-13-17-|
A|---------------------------------------------------------------------------------|
E|---------------------------------------------------------------------------------|

e|------------------------------------------------------|
B|------------------------------------------------------|
G|------------------------------------------------------|
D|-14/18\14---13/21\13---17h19p--15h17p--13h15p--10h12p-|
A|------------------------------------------------------|
E|------------------------------------------------------|

e|---------------------------------------------------------------------|
B|---------------------------------------------------------------------|
G|-15/16/17--19---12/17\15--14\13--------------------------------------|
D|---------------------------------12/15/16--16/20\16---15-16-17-18-19-|
A|---------------------------------------------------------------------|
E|---------------------------------------------------------------------|

e|---------------------------------------------------------------------------|
B|---------------------------------------------------------------------------|
G|-------------------------12-11-10-9-8-7------------------------------------|
D|----18-17-16-15-14-13-12---------------------------------------------------|
A|-19------------------------------------------------------------------------|

e|---------------------------------------------------------------------------|
B|----17-16-17-14-17-15-14----18-17-18-15-18-17-18\-----17-16-17-14-17-15-14-|
G|-15----------------------14------------------------15----------------------|
E|---------------------------------------------------------------------------|

^ TIME STAMP * 1:24 ^

**Play 4X**

D|-8--8--6--9--8-----------------------2nd--------------|
A|-8--8--6--9--8--9--8--10-9--8--7--6----time--------11-|
E|-7--7--5--8--7--8--7--9--8--7--6--5-------end-on---10-|
D|------------------------------------------------------|
A|------------------------------------------------------|
E|------------------------------------------------------|

***

Repeat section surrounded in ☆'s.
Repeat intro once.

e|-------------------------------------------|
B|-18----------19----------20----------21----|
G|----15/16/17----16/17/18----17/18/19-------|
D|-------------------------------------------|
A|-------------------------------------------|
E|-------------------------------------------|


END! 

************************************

| /   slide up
| \   slide down
| h   hammer-on
| p   pull-off
| ~   vibrato
| x   Mute note
| b   Bend
| brb Bend release bend

************************************
Добавлено: 22.05.2016
Другие материалы по этой песне:
  • Аккорды и текст

Страница создана 22.05.2016
http://primanota.ru/yohio/aggressive-beauty-chords.htm
Привет, Гость.
Предлагаем пройти революционный курс по гитаре.
Подарок от PrimaNota.Ru, забирай!