PrimaNota.ru - самый крупный в мире бесплатный архив песенных текстов, аккордов, табулатур и нот


Yodelice - Sunday With A Flu Live - бас-таба, видео

Регистрация Запомнить меня
Войти через:  Facebook Google Twitter Vk Yandex Mail.ru

Yodelice - Sunday With A Flu Live - бас-таба, видео

Печатать
Просмотров: 125
Уроки эстрадного вокала в Санкт-Петербурге
-------------------------------------------------------------------------------
                             SUNDAY WITH A FLU - Yodelice
-------------------------------------------------------------------------------
Album: Tree of Life

Tuning: Standard Tuning

NOTE: Sounds best with Fretless Bass!
***The Tab here refers to the Live version, which in my opinion, sounds best***
***(esp. for Bass [although he's playing on a Cello])***
***https://www.youtube.com/watch?v=K-KOWT5997g ***

MAIN RIFF:
                   
G||--7---x-7----5--||
D||----------7-----||
A||----------------||
E||----------------||
        S

"...the usual sunday with a flu..."
G|----------------||
D|---8------------||
A|---------8------||
E|----------------||
    
"I put my stockings in your purple boots ..."
G|----------------||--7---x-7----5--||--|----------------|
D|---8------------||----------7-----||x2|---8------------|
A|---------8------||----------------||--|---------8------|
E|----------------||----------------||--|----------------|
                                                  x

After 2nd Chorus:

G||---------------||---||---------------|---------------||
D||---------------||x20||---8-----------|---------------||
A||--5--x--5-7-8--||---||---------8-----|--5--x--5-7-8--|| Repeat until
E||---------------||---||---------------|---------------||

"What if I don't get over you...":
G|---------------||-10-9-8-7-6-5-4-3-||--|
D|---8-----------||------------------||x3|
A|---------8-----||------------------||--|
E|---------------||------------------||--|

Go back to MAIN RIFF

Last Chorus

End on D



| S  Slap
| x  Mute note
| l  Let Ring
===============================================================================
Добавлено: 03.01.2016
Вам также может быть интересно:
Другие материалы по этой песне:
  • Аккорды и текст

Страница создана 03.01.2016
http://primanota.ru/yodelice/sunday-with-a-flu-live-chords.htm
Привет, Гость.
Предлагаем пройти революционный курс по гитаре.
Подарок от PrimaNota.Ru, забирай!