PrimaNota.ru - самый крупный в мире бесплатный архив песенных текстов, аккордов, табулатур и нот


Yob - Kosmos - таба, видео

Регистрация Запомнить меня
Войти через:  Facebook Google Twitter Vk Yandex Mail.ru

Yob - Kosmos - таба, видео

Печатать
Просмотров: 40
A STANDARD TUNING: A D G C E A
This one is kinda weird, Mike Scheidt plays pretty odd stuff

|----0-----------------------------0---------------------------------|
|----0-----------------------------0---------------------------------|
|----0-----------------------------0---------------------------------|
|--------------------------------------------------------------------|
|--------------------------------------------------------------------|
|-/-----0-/-0--6~~~~~~~~~~~~~~~--6----0-/-0--6~~~~~~~-0-5~~-0-3~~----|

|------------------------------------------------------------------------|
|------------------------------------------------------------------------|
|------------------------------------------------------------------------|
|------------------------------------------------------------------------|
|------------------------------------------------------------------------|
|-0-6-5-3-0-6~~~~0-1~~~-0-1-0-1h3-3~-0-(0)-------------------------------|

|----0--------------------------------------------------0--0-0--------------------|
|----0--------------------------------------------------0--0-0--------------------|
|----0--------------------------------------------------3--3-3--------------------|
|-------------------------------------------------------2--2-2--------------------|
|-------------------------------------------------------1--1-1---3/5-5-5----7--7--|
|-/-----0-/-0--6~~~~~6~-0-5~~-0-3~~3~-0-6-5-3-0-6-5-3-0--------0-1/3-3-3-0--0--0--|

|---------------------------------------------------------------------|
|----------------9*b---------------------------------9*b--------------|
|----------------8*b---------------------------------8*b--------------|
|-----------------------------------------------------------7-7-7-7---|
|-5-5h7-5h7-7-------7--5-5h7-5h7-8\3--7-5-5h7-5h7-------7---5-5-5-5---|
|-0-0-0-0-0-0-00----0--0-0-0-0-0-6\1--0-0-0-0-0-0-00----0-0-----------|

|-------------------------------------------------------0------------|
|-------------------------------------------------------0------------|
|-------------------------------------------------------0------------|
|--------------------------------------------------------------------|
|--------8~~~~8~~~---7-----5-----8-7-5---8------3~~~3-3-----3/5-5~---|
|-0-/-0--6~~~~6~~~-0-5~~-0-3~~-0-6-5-3-0-6~~~~0-1~~~1-1---0-1/3-3~-0-|

|---------------------------------------------------------------------|
|----------------9*b---------------------------------9*b--------------|
|----------------8*b---------------------------------8*b--------------|
|-----------------------------------------------------------7-7-7-7---|
|-5-5h7-5h7-7-------7--5-5h7-5h7-8\3--7-5-5h7-5h7-------7---5-5-5-5---|
|-0-0-0-0-0-0-00----0--0-0-0-0-0-6\1--0-0-0-0-0-0-00----0-0-----------|

|---------------------------------------------------0--0-0--------------------|
|---------------------------------------------------0--0-0--------------------|
|---------7------7----6-----4--4----7-6-4---7-6-4---3--3-3--------------------|
|---------------------------------------------------2--2-2--------------------|
|---------8------8----7-----5--5----8-7-5---8-7-5---1--1-1---3/5-5-5----7--7--|
|-0-/-0---6------6~-0-5~~-0-3~~3~-0-6-5-3-0-6-5-3-0--------0-1/3-3-3-0--0--0--|

|----------------------------------------------------------------------------|
|----------------9*b---------------------------------9*b---------------------|
|----------------8*b---------------------------------8*b---------------------|
|---------------------------------------------------------------------10------|
|-5-5h7-5h7-7-------7--5-5h7-5h7-8\3--7-5-5h7-5h7-------7-5-5h7-9-8---8--7----|
|-0-0-0-0-0-0-00----0--0-0-0-0-0-6\1--0-0-0-0-0-0-00----0-0-0-0-7-6-0----0----|x how ever many times

Figure out how many time and which parts are played by listening to the song at this part
|--------------------------------------------------------------------------------------------------------------|
|-----------13-14--------------------------13-14-----------------------------13-14~----------------------------|
|-----------13-14--------------------------13-14-----------------------------13-14~----------------------------|
|---9999~---12-13---9999--------10--9999---12-13---9999--------10-7---9999------------9999--------10-----9999--|
|---7777~---11-12---7777---9-8--8---7777---11-12---7777---9-8--8--5---7777---11-12~---7777---9-8--8------7777--|
|-0-------0-------0------0-7-6-0---0------0-------0-----0-7-6-0-----0------0--------0------0-7-6-0-----0------0|
after this whole thing

|-----------------(0)-|
|-----------------(0)-|
|-----------------(0)-|
|----------101010-(9)-|
|---9998---8-8-8--(7)-|
|-0-7776-0--------(0)-|

The Riff you probably came to learn
|------------------------------------------0-----------------------------|
|------------------------------------------0-----------------------------|
|------------------------------------------0-----------------------------|
|----------101010-9---7/999---9999~-101010-9---7/999----------101010-9~--|
|---9998---8-8-8--7---5/777---7777~-8-8-8--7---5/777---9998---8-8-8--7~--|
|-0-7776-0----------0-------0----------------0-------0-7776-0------------|x how ever many is needed

CHORUS
|--------------------0------1----0-----0------------------0------1----0---------------------------|
|--------------------0------1----0-----0------------------0------1----0---------------------------|
|--------------------10-----1----0-----0------------------10-----1----0---------------------------|
|---10-9-9\7/9-9-----9------3----3-----3------------------9------3----3--------10-9-9-9\7/9-9-----|
|---8--7-7\5/7-7-----8------3----2-----2---7-6-7/8-7/8----8------3----2----7-8-8--8-7-7\5/7-7-----|
|-0---------------000----00-1-00-1-00001-0-9-8-5/6-5/6--00----00-1-00-1-00-9-7--------------------|

|---------------------0------------------------------|
|---------------------0------------------------------|
|---------------------0------------------------------|
|--999---9999~-101010-9---7/9999----------101010-9~--|
|--777---7777~-8-8-8--7---5/7777---9998---8-8-8--7~--|
|0-----0----------------0--------0-7776-0------------|


|-----------------------0-----------------------------|
|-----------------------0-----------------------------|
|-----------------------0-----------------------------|
|--7/999---9999~-101010-9---7/999----------101010-9~--|
|--5/777---7777~-8-8-8--7---5/777---9998---8-8-8--7~--|
|0-------0----------------0-------0-7776-0------------|x how ever many

CHORUS AGAIN

THEN


|----------------------------------------------------|
|----------------------------------------------------|
|----------------------------------------------------|
|--9999---10101010--13131313----10/13\10/13----------|
|--7777---8-8-8-8---111111111---8-/11\8-/11----------|
|0------0---------0-----------0----------------------|

|-------------------------------0--0-------------------|
|-------------------------------0--0-------------------|
|-------------------------------0--0-------------------|
|--9999---10101010--13131313----14-13-10/13\10/13------|
|--7777---8-8-8-8---111111111---12-11-8-/11\8-/11------|
|0------0---------0-----------0------------------------| repeat this sequence of the this and the previous part x2

|------0--0-0-0-0-------------------------|
|------0--0-0-0-0-------------------------|
|------3--3-3-3-3-------------------------|
|2-2-2-2--2-2-2-2-2-2-2-109-7-9-10-13-----|
|2-2-2-1--1-1-1-1-2-2-2-8-7-5-7-8--11-----|
|0-0-0------------0-0-0-------------------|
     *                *
|------0--0-0-0-0------------------------------|
|------0--0-0-0-0------------------------------|
|------3--3-3-3-3------------------------------|
|2-2-2-2--2-2-2-2-2-2-2-14-13-10-13-14-13~-10--|
|2-2-2-1--1-1-1-1-2-2-2-12-11-8--11-12-11~-8---|
|0-0-0------------0-0-0------------------------|
     *                *
|------0--0-0-0-0---------------------------------------| FIX THIS
|------0--0-0-0-0------------------------------------|
|------3--3-3-3-3-----------------------------------|
|2-2-2-2--2-2-2-2-2-2-2-14-13-10-12-7-11-9-8-6-8-|
|2-2-2-1--1-1-1-1-2-2-2-12-11-8--10-9--7-6-4-6-2|
|0-0-0------------0-0-0------------------------|
     *                *

|-0-0-0-0-0------------------------------| FIX THIS
|-0-0-0-0-0------------------------------|
|-9-9-9-9-9------------------------------|
|-8-8-8-8-8-2-2-2-14-13-10-13-14-13~-10--|
|-7-7-7-7-7-2-2-2-12-11-8--11-12-11~-8---|
|------------0-0-0------------------------|
     *                *
Добавлено: 23.05.2016
Другие материалы по этой песне:
  • Аккорды и текст

Страница создана 23.05.2016
http://primanota.ru/yob/kosmos-chords.htm
Привет, Гость.
Предлагаем пройти революционный курс по гитаре.
Подарок от PrimaNota.Ru, забирай!