PrimaNota.ru - самый крупный в мире бесплатный архив песенных текстов, аккордов, табулатур и нот


Yoann Le Dantec - Autumn Souvenir - таба, видео

Регистрация Запомнить меня
Войти через:  Facebook Google Twitter Vk Yandex Mail.ru

Yoann Le Dantec - Autumn Souvenir - таба, видео

Печатать
Просмотров: 98
The main guitar part played by guitar no. 1 could be played either with capo on 8th fret
(like in this tab) or without it - just use bare on the first five strings on the 8th
fret and for the second figure, use your thumb to press the C# on the low E string. It's 
harder but it's duable.

Guitar 1
Capo: 8th fret

fig. 1
e|--------------------------------------------------------------------|
B|-----------1--0------------1--0------------1--0------------1--0-----|
G|--0--0------------0--0------------0--0------------0--0--------------|
D|--------2---------------2---------------2---------------2-----------|
A|--0---------------0---------------0---------------0-----------------|
E|--------------------------------------------------------------------|

fig. 2
e|--------------------------------------------------------------------|
B|-----------1--3------------1--0------------1--3------------1--0-----|
G|--0--0------------0--0------------0--0------------0--0--------------|
D|--------2---------------2---------------2---------------2-----------|
A|--------------------------------------------------------------------|
E|--1---------------1---------------1---------------1-----------------|

fig. 2 (variation)
e|-------------------------------------------0------------------------|
B|-----------1--3------------1--0---------------3------------1--0-----|
G|--0--0------------0--0------------0--0------------0--0--------------|
D|--------2---------------2---------------2---------------2-----------|
A|--------------------------------------------------------------------|
E|--1---------------1---------------1---------------1-----------------|

Guitar 2
No capo

e|--------------------------------------------------------------------|
B|--------------------------------------------------------------------|
G|--------------------------------------------------------------------|
D|----3---3---3---3---3---3---3---3---3---3---3---3---3---3---3-------|
A|--------------------------------------------------------------------|
E|--1---1---1---1---1---1---1---1---1---1---1---1---1---1---1---1-----|

Guitar 3
No Capo

e|--------------------------------------------------------------------|
B|--------9--------9-----------------9--------9-----------------------|
G|----10-------10-------10-------10-------10-------10-----------------|
D|--------------------------------------------------------------------|
A|--8--------8--------8--------8--------8--------8--------------------|
E|--------------------------------------------------------------------|

e|--------------------------------------------------------------------|
B|--------9--------9-----------------9--------9-----------------------|
G|----10-------10-------10-------10-------10-------10-----------------|
D|--------------------------------------------------------------------|
A|--------------------------------------------------------------------|
E|--9--------9--------9--------9--------9--------9--------------------|

http://www.yoannledantec.com/
http://www.myspace.com/yoannledantec
Добавлено: 21.07.2013
Другие материалы по этой песне:
  • Аккорды и текст

Страница создана 21.07.2013
http://primanota.ru/yoann-le-dantec/autumn-souvenir-chords.htm
Привет, Гость.
Предлагаем пройти революционный курс по гитаре.
Подарок от PrimaNota.Ru, забирай!