PrimaNota.ru - самый крупный в мире бесплатный архив песенных текстов, аккордов, табулатур и нот


Yo - What You Are - аккорды и текст, видео

Регистрация Запомнить меня
Войти через:  Facebook Google Twitter Vk Yandex Mail.ru

Yo - What You Are - аккорды и текст, видео

Печатать
Просмотров: 40
What You Are
Yo
What you are 

|INTRO|
e-----------|------------|-----------------|
b-----------|------------|-----------------|
g-----2-----|------4-----|-----2----------0|
d---3---(x4)|----5---(x4)|---2---(x7)---0--| (Se repite todo 2 veces)
a-----------|------------|-----------------|
e-1---------|-3----------|-0----------0----|

|VERSO|
e-----------|------------|-----------------|
b-----------|------------|-----------------|
g-----2-----|------4-----|-----2----------0|
d---3---(x4)|----5---(x4)|---2---(x7)---0--| (Se repite todo 4 veces)
a-----------|------------|-----------------|
e-1---------|-3----------|-0----------0----|

|PUENTE|
e-----------|------------|-----------|-----------|
b-----------|------------|-----------|-----------|
g-----2-----|-----4------|-----6-----|-----8-----|
d---3---(x4)|---5----(x4)|---7---(x4)|---9---(x8)| 
a-----------|------------|-----------|-----------|
e-1---------|-3----------|-5---------|-7---------|

|CORO|

e-----------|------------|-----------|-----------|
b-----9-----|-----7------|-----5-----|-----3-----|
g---9-------|---7--------|---5-------|---3-------|
d-------(x4)|--------(x4)|-------(x4)|-------(x4)| (Se repite todo 4 veces) 
a-7---------|-5----------|-3---------|-1---------|
e-----------|------------|-----------|-----------|

|VERSO|
e-----------|------------|-----------------|
b-----------|------------|-----------------|
g-----2-----|------4-----|-----2----------0|
d---3---(x4)|----5---(x4)|---2---(x7)---0--| (Se repite todo 4 veces)
a-----------|------------|-----------------|
e-1---------|-3----------|-0----------0----|

|PUENTE|
e-----------|------------|-----------|-----------|
b-----------|------------|-----------|-----------|
g-----2-----|-----4------|-----6-----|-----8-----|
d---3---(x4)|---5----(x4)|---7---(x4)|---9---(x8)| 
a-----------|------------|-----------|-----------|
e-1---------|-3----------|-5---------|-7---------|

|CORO|
e-----------|------------|-----------|-----------|
b-----9-----|-----7------|-----5-----|-----3-----|
g---9-------|---7--------|---5-------|---3-------|
d-------(x4)|--------(x4)|-------(x4)|-------(x8)| (Se repite todo 4 veces) 
a-7---------|-5----------|-3---------|-1---------|
e-----------|------------|-----------|-----------|

|OUTRO O LO QUE SEA|
e-----------|------------|-----------|-----------|
b-----2-----|-----4------|-----8-----|-----6-----|
g---3-------|---5--------|---9-------|---7-------|
d-------(x4)|--------(x4)|-------(x4)|-------(x4)| 
a-1---------|-3----------|-7---------|-5---------|
e-----------|------------|-----------|-----------|

e-----------|------------|-----------|-----------|
b-----2-----|-----4------|-----8-----|-----6-----|
g---3-------|---5--------|---9-------|---7-------|
d-------(x4)|--------(x4)|-------(x4)|-------(x8)| 
a-1---------|-3----------|-7---------|-5---------|
e-----------|------------|-----------|-----------|

|FINAL|
e-----------|------------|-----------------|
b-----------|------------|-----------------|
g-----2-----|------4-----|-----2----------0|
d---3---(x4)|----5---(x4)|---2---(x7)---0--| 
a-----------|------------|-----------------|
e-1---------|-3----------|-0----------0----|

e-----------|-----------------|-------|
b-----------|-----------------|-------|
g-----2-----|------4---------0|-2~~---|
d---3---(x4)|----5---(x3)--0--|-2~~---| 
a-----------|-----------------|-------|
e-1---------|-3----------3----|-0~~---|
Добавлено: 03.08.2015
Другие материалы по этой песне:
  • Аккорды и текст

Страница создана 03.08.2015
http://primanota.ru/yo/what-you-are-chords.htm
Привет, Гость.
Предлагаем пройти революционный курс по гитаре.
Подарок от PrimaNota.Ru, забирай!