PrimaNota.ru - самый крупный в мире бесплатный архив песенных текстов, аккордов, табулатур и нот


Yo La Tengo - The Race Is On Again - аккорды и текст, видео

Регистрация Запомнить меня
Войти через:  Facebook Google Twitter Vk Yandex Mail.ru

Yo La Tengo - The Race Is On Again - аккорды и текст, видео

Печатать
Просмотров: 26
The Race Is On Again
Yo La Tengo
Yo La Tengo
The Race is On Again
I Am Not Afraid Of You And I Will Beat Your Ass (2006)

Riff 1:

e|----------------------|
B|----------------------|
G|---5/7-5-4-5-4--------|
D|---------------5/7-7--|
A|----------------------|
E|----------------------|

D
We were young
No one could figure out
Things we said
There was so much to laugh about

           Em
Now at the end of the day
             G
Wish I could hear you say
                      Bm
We're at the starting gate
                D
And the race is on again

[Riff 1]

D
Just last night
I couldn't sleep at all
Lost my mind
Lost my footing scaling the wall

           Em
Now at the break of day
             G
Wish I could hear you say
                      Bm
We're at the starting gate
                D
And the race is on again

[Riff 1]

Riff 2:

e|-----------------------------------------------------------------|
B|-----------------------------------------------------------------|
G|----------2/5-4-----------2/5-4-2-2--2-/7-5-4-2--2-0-------------|
D|-2-4-5-4-2-------2-4-5-4-2--------------------------4-4--0-2-4---|
A|--------------------------------------------------------------4--|
E|-----------------------------------------------------------------|x2

D Am G D
D Em G Bm D


           Em
Now at the end of the day
             G
Wish I could hear you say
                      Bm
We're at the starting gate
                D
And the race is on again

           G
Now at the end of the day
               Bm
Wish you would say
                D
And the race is on again

                Am 
What am I doing now
G               D   Am
What am I doing now
G               D    Am
What am I doing wrong

         G*          F#
Will you wait for me
            G*
Or will you run away
Bm           Bb     Bb     C*
I swear that I knew yesterday
Bb C* D
Yesterday

Am

G               D   Am
What am I doing now
G               D     Am
What am I doing wrong

         G*          F#
Will you wait for me
            G*
Or will you run away
Bm           Bb     Bb     C*
I swear that I knew yesterday
Bb C* D
Yesterday

[variation of Riff 2]

Am Em D


notes:
G*: 355433
C*: 335553
Bb: 113331

Добавлено: 01.09.2015
Другие материалы по этой песне:
  • Аккорды и текст

Страница создана 01.09.2015
http://primanota.ru/yo-la-tengo/race-is-on-again-chords.htm
Привет, Гость.
Предлагаем пройти революционный курс по гитаре.
Подарок от PrimaNota.Ru, забирай!