PrimaNota.ru - самый крупный в мире бесплатный архив песенных текстов, аккордов, табулатур и нот


Yo La Tengo - Night Falls On Hoboken - текст песни, таба, видео

Регистрация Запомнить меня
Войти через:  Facebook Google Twitter Vk Yandex Mail.ru

Yo La Tengo - Night Falls On Hoboken - текст песни, таба, видео

Печатать
Просмотров: 70
Yo la tengo - Night falls on Hoboken 

Tuning: Open E (EBEG#be)

Chords:

  Emaj7    E/A      E      E/B5    E/A5    C#5     G#m

e |-0-------0-------0-------0-------0---------------0----
b |-0-------0-------0-------0-------0---------------0----
G#|-0-------1-------0-------0-------0-------0-------0----
E |-4-------0-------0-------7-------5-------9-------4----
B |-4-------2-------0-------7-------5-------9-------4----
E |-0-------0-------0------(7)-----(5)-------------(4)---

Riff:

e |-----------0--0----------------------------0--0-------
b |-----------0--0----------------------------0--0-------
G#|----------------------0-0-0-0---0-0--0------------0---
E |(2)/4--------------4--4-4-4-4---4-4--4/7----------7---
B |-0-----------------0--0-0-0-0---0-0--0------------0---
E |-0-----0-----------0----------------------------------

   -----------------------|                              
   -----------------------| 
   -0-0------0----0---0-0-|                              
   -7-7---2--2/4--4---4-4-|                              
   -0-0------0----0---0-0-|                              
   ----------0------------|                             


Verse:

Emaj7      E/A
Frightened Face
Emaj7      E/A
Lonely     Dream
Emaj7      E/A
Break my   Heart
              E
With your sad scream

Riff

Chorus:

  E/B5                E/A5    C#5
C'mon let's leave our misery
    E/B5                  E/A5
And crawl t'ward where we wanna be, 
         G#m   E/A5           G#m    E/A5
Can't we try?        Can't we try?
  E/B5                E/A5        C#5
C'mon sleep one night peacefully
    E/B5              E/A5
And all your (?????) easily...


I've only tabbed out the basics, but figuring out the outro guitar part up 
until around the 10 minute mark shouldn't be too hard once you know the tuning; 
after that I think it's anyone's guess. For the strum pattern and phrasing just 
listen to the record. If you play this on your own without a bass to give the 
chords a fuller shape you'll want to strum the bracketed notes in the chorus. 
Um. Yeah. Any questions or anything feel free to e-mail me. Tom. 



-------------------------------------------------
     
Добавлено: 05.08.2013
Другие материалы по этой песне:
  • Аккорды и текст

Страница создана 13.07.2012
http://primanota.ru/yo-la-tengo/night-falls-on-hoboken-chords.htm
Привет, Гость.
Предлагаем пройти революционный курс по гитаре.
Подарок от PrimaNota.Ru, забирай!