PrimaNota.ru - самый крупный в мире бесплатный архив песенных текстов, аккордов, табулатур и нот


Yngwie Malmsteen - Island In The Sun - таба, видео

Регистрация Запомнить меня
Войти через:  Facebook Google Twitter Vk Yandex Mail.ru

Yngwie Malmsteen - Island In The Sun - таба, видео

Печатать
Просмотров: 108
Авторы музыки: Yngwie J. Malmsteen, Jimmy Waldo, Graham Bonnet

Yngwie Malmsteen
Island In The Sun

Intro
E||----------|-------------------|-------------------|-------------------|
B||----------|--5----------------|-------------------|-------------------|
G||----------|--4----------------|--------------4----|-------------------|
D||----------|--2----------------|--------------4----|--2----------------|
A||----------|-------------------|--------------2----|--2----------------|
E||----------|-------------------|-------------------|--0----------------|


Gtr1
--------------------|--------------------|
--------------------|--------------------|
----------1---------|--------------------|
---------------4----|--2~-------------2--|
--------------------|--------------------|
--------------------|--------------------|
Gtr2
--------------------|--------------------|
--------------------|--------------------|
--------------------|--------------------|
----------2----1----|--------------------|
--------------------|--4~-------------4--|
--------------------|--------------------|


Gtr1
---------------------------------|---------------------|
---------------------------------|---------------------|
---------------------------------|---------------------|
----1--1~2h1~2h1~2h1~2h1~2h1~----|-----------------1---|
---------------------------------|--2--------4---------|
---------------------------------|---------------------|
Gtr2
---------------------------------|---------------------|
---------------------------------|---------------------|
---------------------------------|---------------------|
---------------------------------|--1--------2-----4---|
----2--2~4h2~4h2~4h2~4h2~4h2~----|---------------------|
---------------------------------|---------------------|


Gtr1                   Main theme (first 2 measures only)
----------------------|-------------------------|-------------------------|
----------------------|--5----------------------|-------------------------|
----------------------|--4----------------------|---------------1---------|
----2-0h2~------------|--2----------------------|-----------x-x------4----|
----------------------|-------------------------|-----------x-x-----------|
----------------------|-------0--0--0--0--0--0--|--0--0--0--0-x-----------|
Gtr2
----------------------|
----------------------|
----2-0h2~------------|
----------------------|
----------------------|
----------------------|


Verse
--9-----------------|------------------|--7----------------|
--9-----------------|------------------|--7----------------|
--9-----------------|------------------|--8----------------|
--11----------------|------------------|--9----------------|
--11----------------|------------------|--9----------------|
--9-----------------|------------------|--7----------------|


------------------|--9-----------------|------------------|
------------------|--9-----------------|------------------|
------------------|--9-----------------|------------------|
------------------|--11----------------|------------------|
------------------|--11----------------|------------------|
------------------|--9-----------------|------------------|


--5----------------|--7----------------|--9-----------------|
--5----------------|--7----------------|--9-----------------|
--6----------------|--8----------------|--9-----------------|
--7----------------|--9----------------|--11----------------|
--7----------------|--9----------------|--11----------------|
--5----------------|--7----------------|--9-----------------|


-----9----------------|--7----------------|-----7----------------|
--------9-------------|--7----------------|--------7-------------|
--9--------9----------|--8----------------|--8--------8----------|
----------------------|--9----------------|----------------------|
----------------------|--9----------------|----------------------|
----------------------|--7----------------|----------------------|


--9-----------------|-----9----------------|--7----------------|
--9-----------------|--------9-------------|--7----------------|
--9-----------------|--9--------9----------|--8----------------|
--11----------------|----------------------|--9----------------|
--11----------------|----------------------|--9----------------|
--9-----------------|----------------------|--7----------------|


                    Repeat main theme
--5----------------|-------------------------|-------------------------|
--5----------------|--5----------------------|-------------------------|
--6----------------|--4----------------------|---------------1---------|
--7----------------|--2----------------------|-----------x-x------4----|
--7----------------|-------------------------|-----------x-x-----------|
--5----------------|-------0--0--0--0--0--0--|--0--0--0--0-x-----------|


Solo
---------------------|----------------------|-----------------------|
---------------------|----------------------|--------9--------------|
---------------------|----------------------|--6-8-9---9~-----------|
-----------------1---|----2-0h2~------------|-----------------------|
--2--------4---------|----------------------|-----------------------|
---------------------|----------------------|-----------------------|

--------------------------------|------------------------|
----------------7-----7-9---7-9-|--10-9-7----------------|
----6-8-9-6-8-9---8-9-----9-----|---------9-8~-----------|
--------------------------------|------------------------|
--------------------------------|------------------------|
--------------------------------|------------------------|

------------------------11h12----11h12h14-16---17---19--|
------------10-12-14-14-------14------------------------|
--9-9-11-13---------------------------------------------|
--------------------------------------------------------|
--------------------------------------------------------|
--------------------------------------------------------|

--19b-----------------------------|------------------------------------|
-------19r--17--16--17~--------16-|--16b--------14-14~--------14h16h17-|
----------------------------18----|----------16------------16----------|
----------------------------------|------------------------------------|
----------------------------------|------------------------------------|
----------------------------------|------------------------------------|

--14h16h14-------14---------------------------------------------------------|
-----------17-16----17h16h14-16-17-16-14----14----------14h13---------------|
-----------------------------------------16----16-14-13--------14h13----14--|h
---------------------------------------------------------------------16-----|
----------------------------------------------------------------------------|
----------------------------------------------------------------------------|

---------------------------------------------16-|
------------------------------------------17----|
--13----------13----------13/18~-------18-------|
-----16-14-16----16-14-13-----------------------|
------------------------------------------------|
------------------------------------------------|

--21h16----------------16-17--19--21--21b-|--21b---------21b---21--|
--------17----16-17-19--------------------|------------------------|
-----------18-----------------------------|------------------------|
------------------------------------------|------------------------|
------------------------------------------|------------------------|
------------------------------------------|------------------------|

--21r-------19~-------|--16-17-14-17-12-17----17-------------16-17-16----|
----------------------|--------------------16-------16-17-19----------19-|
----------------------|--------------------------18----------------------|
----------------------|--------------------------------------------------|
----------------------|--------------------------------------------------|
----------------------|--------------------------------------------------|

--16--------------------------16-------------|
---------------------16-17-19----17----16-17-|
------18~------16-18----------------18-------|
---------------------------------------------|
---------------------------------------------|
---------------------------------------------|

-----16-17-------------16-17----16-17-21b-------|
--19-------17-16-17-19-------19-----------------|
------------------------------------------------|
------------------------------------------------|
------------------------------------------------|
------------------------------------------------|

--19r-------21--------16-17-17--|--21--21b-------------|
----------------17-19-----------|----------------------|
--------------------------------|----------------------|
--------------------------------|----------------------|
--------------------------------|----------------------|
--------------------------------|----------------------|

----------------------|--------------------|------------------|
----------------------|--------------------|------------------|
----------------------|--------------------|------------------|
--12~-----11----------|--11~---------------|------------------|
----------------------|--------------------|------------------|
----------------------|--------------------|------------------|


Last moments of outro
---------------------|----------------------|----------------------------|
---------------------|----------------------|--7-------------------------|
---------------------|----------------------|--6-------------------------|
-----------------1---|----2-0h2~------------|--4-------------------------|
--2--------4---------|----------------------|----------------------------|
---------------------|----------------------|-------2--2-2-2--2-2-2--2-2-|

--------------------------|--------------------|
--------------------------|--------------------|
----------------3---------|--------------------|
------------x-x------6----|--4~-------------4--|
------------x-x-----------|--------------------|
--2--2-2-2--0-x-----------|--------------------|

---------------------------------|---------------------|
---------------------------------|---------------------|
---------------------------------|---------------------|
----3--3~4h3~4h3~4h3~4h3~4h3~----|-----------------3---|
---------------------------------|--4--------6---------|
---------------------------------|---------------------|


                       repeat
----------------------|----------------------------|
----------------------|--7-------------------------|
----------------------|--6-------------------------|
----4-2h4~------------|--4-------------------------|
----------------------|----------------------------|
----------------------|-------2--2-2-2--2-2-2--2-2-|
Добавлено: 18.05.2012
Другие материалы по этой песне:

Страница создана 20.04.2012
http://primanota.ru/yngwie-malmsteen/island-in-the-sun-chords.htm
Привет, Гость.
Предлагаем пройти революционный курс по гитаре.
Подарок от PrimaNota.Ru, забирай!