PrimaNota.ru - самый крупный в мире бесплатный архив песенных текстов, аккордов, табулатур и нот


Yngwie Malmsteen - Fugue Live - таба, видео

Регистрация Запомнить меня
Войти через:  Facebook Google Twitter Vk Yandex Mail.ru

Yngwie Malmsteen - Fugue Live - таба, видео

Печатать
Просмотров: 97
As recorded by Yngwie Malmsteen
(From the 1998 Album CONCERTO SUITE FOR ELECTRIC GUITAR & ORCHESTRA IN EB MINOR)

Transcribed by Ivan - (peekaboo104@hotmail.com)
        

Music by Yngwie J. Malmsteen

Gtr I (Eb Ab Db Gb Bb Eb) - 'Yngwie Malmsteen'

  Allegro Q.=130
  N.C.       Em
 3/4
  Gtr I
                                      |-3-|
  Wx6         S  S  S  S  S  S  S  S  E E E
|----------|-15-14-12-11--------------------|
|----------|-------------13-12-10-----------|
|----------|----------------------12-11-9-8-|
|----------|--------------------------------|
|----------|--------------------------------|
|----------|--------------------------------|


                            D              Em
  ~
  H    Q     E E E E E  E   E E E  E E E   Q  Q  Q
|---------||--------------|-7h8-7--------|----7-------|
|---------||-------7-8-10-|-------10-8-7-|-8-----8----|
|-9-------||-9-8-9--------|--------------|------------|
|---------||--------------|--------------|------------|
|---------||--------------|--------------|------------|
|---------||--------------|--------------|------------|


  B           Em             B              Em
                                             |-3-| |-3-|  |-3-|
  H.          E E E E E  E   E E E  E E E    E E E E E E  E E E
|-----------|--------------|-7h8-7--------|-12p7-------7-12p7---|
|-7tr8------|-------7-8-10-|-------10-8p7-|------8---8----------|
|-----------|-9-8-9--------|--------------|--------9------------|
|-----------|--------------|--------------|---------------------|
|-----------|--------------|--------------|---------------------|
|-----------|--------------|--------------|---------------------|


  E                            Am
   |--3--|  |--3--|  |--3--|
   E  E  E  E  E  E  E  E  E    E  E  E E  E E
|-16p12----------12-16p12----|----12-17---17---|
|-------12----12----------12-|-13--------------|
|----------13----------------|-----------------|
|----------------------------|-----------------|
|----------------------------|-----------------|
|----------------------------|-----------------|


  E             Am                  E
         ~~
   E  E  H       E  E  E  E  E  E    E  E  E  E  E  E
|-16-17-19----|-20-17-19-16-17----|-16----------------|
|-------------|----------------18-|----18-17-15-------|
|-------------|-------------------|-------------17-16-|
|-------------|-------------------|-------------------|
|-------------|-------------------|-------------------|
|-------------|-------------------|-------------------|


  Am                  E                   Am
                                           |--3--|
   E  E  E  E  E  E    E  E  E  E  E  E    E  E  E  E E  E E
|-------------------|-12-13p12----------|-------12-17---17-----|
|----------12-13-15-|----------15-13-12-|----13----------------|
|-14-13-14----------|-------------------|-14-------------------|
|-------------------|-------------------|----------------------|
|-------------------|-------------------|----------------------|
|-------------------|-------------------|----------------------|


  B                Em             D
            ~~
   |--3--|
   E  E  E  H      E E E E E  E   E E E  E E E
|-14p11----------|--------------|-7h8-7--------|
|-------12-------|-------7-8-10-|-------10-8-7-|
|----------11----|-9-8-9--------|--------------|
|----------------|--------------|--------------|
|----------------|--------------|--------------|
|----------------|--------------|--------------|


  Em         B           Em
  Q  Q  Q    H.          E E E E E  E
|----7-----|-----------|----------------|
|-8-----8--|-7tr8------|-------7-8-10---|
|----------|-----------|-9-8-9----------|
|----------|-----------|----------------|
|----------|-----------|----------------|
|----------|-----------|----------------|


  B              Em
                                          |-3-|
  E E E  E E E    S  S  S  S  S  S  S  S  E E E
|-7h8-7--------|-15-14-12-11--------------------|
|-------10-8p7-|-------------13-12-10-----------|
|--------------|----------------------12-11-9-8-|
|--------------|--------------------------------|
|--------------|--------------------------------|
|--------------|--------------------------------|


                 Am            D                 G
                                                  ~~~
  Q   Q   Q       Q   Q   Q     Q       Q   Q     H.
|----12------||------12--15--|-14tr15--12------|-15-----|
|--------12--||o-13----------|-------------15--|--------|
|-9----------||--------------|-----------------|--------|
|------------||--------------|-----------------|--------|
|------------||o-------------|-----------------|--------|
|------------||--------------|-----------------|--------|


  Am           F#m7              B
  Q   Q   Q     Q   E  E  E  E    E  E  E  E  E  E
|----17--19--|-20--19-20-17-20-|-15-20----20-------|
|------------|-----------------|-------19----17-16-|
|------------|-----------------|-------------------|
|------------|-----------------|-------------------|
|------------|-----------------|-------------------|
|------------|-----------------|-------------------|


                     1.              2.
  Em
                       ~~              ~~
   E  E  E  E  E  E    Q   Q   Q       H    Q
|----19-15----------|-----12-------||----------||
|-17-------17----16-|-17------12--o||-17-------||
|-------------16----|--------------||----------||
|-------------------|--------------||----------||
|-------------------|-------------o||----------||
|-------------------|--------------||----------||


  Em             B              Em
                                ~
  E E E E E  E   E E E  E E E   Q  Q  Q
|--------------|-7-8-7--------|----7-----|
|-------7-8-10-|-------10-8-7-|-8-----8--|
|-9-8-9--------|--------------|----------|
|--------------|--------------|----------|
|--------------|--------------|----------|
|--------------|--------------|----------|


  B                     Em                D
                                                 ~~
                        |-3-|
  Q     Q      Q        E E E  E E  E E    E  E  H
|-------7tr8--11tr12--|-----7-12---12---|-11-12-14----|
|-7tr8----------------|---8-------------|-------------|
|---------------------|-9---------------|-------------|
|---------------------|-----------------|-------------|
|---------------------|-----------------|-------------|
|---------------------|-----------------|-------------|


  Em
                                   ~
                           |-3-|
   S  S  S  S  S  S  S  S  E E E   H    Q
|-15-14-12-11--------------------|---------|
|-------------13-12-10-----------|---------|
|----------------------12-11-9-8-|-9-------|
|--------------------------------|---------|
|--------------------------------|---------|
|--------------------------------|---------|


  Em             B              Em         B
                                ~
  E E E E E  E   E E E  E E E   Q  Q  Q    E E E E E  E
|--------------|-7-8-7--------|----7-----|---------------|
|-------7-8-10-|-------10-8-7-|-8-----8--|-------7-8-10--|
|-9-8-9--------|--------------|----------|-9-8-9---------|
|--------------|--------------|----------|---------------|
|--------------|--------------|----------|---------------|
|--------------|--------------|----------|---------------|


  B              Em         E
                 ~
                             |--3--|  |--3--|  |--3--|
  E E E  E E E   Q  Q  Q     E  E  E  E  E  E  E  E  E
|-7-8-7--------|----7-----|-16p12----------12-16p12----||
|-------10-8-7-|-8-----8--|-------12----12----------12-||
|--------------|----------|----------13----------------||
|--------------|----------|----------------------------||
|--------------|----------|----------------------------||
|--------------|----------|----------------------------||


  Am                   E             Am
                              ~~
   |--3--|
   E  E  E  E E  E E    E  E  H       E  E  E  E  E  E
|-------12-17---17---|-16-17-19----|-20-17-19-16-17------|
|----13--------------|-------------|----------------18---|
|-14-----------------|-------------|---------------------|
|--------------------|-------------|---------------------|
|--------------------|-------------|---------------------|
|--------------------|-------------|---------------------|


  E                   Am                   E
                                                  ~~
                       |--3--|
   E  E  E  E  E  E    E  E  E  E E  E E    E  E  H
|-16----------------|-------12-17---17---|-16-17-19----|
|----18-17-15-------|----13--------------|-------------|
|-------------17-16-|-14-----------------|-------------|
|-------------------|--------------------|-------------|
|-------------------|--------------------|-------------|
|-------------------|--------------------|-------------|


  Am                                                 Dm
                                      ~~              ~~
                           |--3--|
   S  S  S  S  S  S  S  S  E  E  E    Q   Q   Q       Q   Q   Q
|-20-19-17-16----------------------|-----17------||------17--20--|
|-------------18-17-15-------------|---------17--||o-18----------|
|----------------------17-16-14-13-|-14----------||--------------|
|----------------------------------|-------------||--------------|
|----------------------------------|-------------||o-------------|
|----------------------------------|-------------||--------------|


  G                  C          F
                      ~~~
   |--3--|
   E  E  E  Q   Q     H.        Q   Q   Q
|-19h20p19-17------|-20-------|----10--12--|
|--------------20--|----------|------------|
|------------------|----------|------------|
|------------------|----------|------------|
|------------------|----------|------------|
|------------------|----------|------------|


  Bm7               E                 Am
   Q   E  E  E  E   E  E  E  E  E E    E  E E  E E E
|-13--12-13-10-13-|-8-13----13------|----12-8----------|
|-----------------|------12----10-9-|-10------10---9---|
|-----------------|-----------------|------------9-----|
|-----------------|-----------------|------------------|
|-----------------|-----------------|------------------|
|-----------------|-----------------|------------------|


  1.             2.
                               Dm
   ~~              ~~
   Q   Q   Q       H    Q       E  E  E  E  E  E
|-----17-------||----------||--13-17-16-17-16-17-|
|-10------17--o||-10-------||o-------------------|
|--------------||----------||--------------------|
|--------------||----------||--------------------|
|-------------o||----------||o-------------------|
|--------------||----------||--------------------|


  Am                  B°                  Am
   E  E  E  E  E  E    E  E  E  E  E  E    E  E  E  E  E  E
|-12-17-16-17-16-17-|----17-16-17-16-17-|----17-16-17-16-17-|
|-------------------|-15----------------|-13----------------|
|-------------------|-------------------|-------------------|
|-------------------|-------------------|-------------------|
|-------------------|-------------------|-------------------|
|-------------------|-------------------|-------------------|


                                         1.
  E                   Am                  E
   E  E  E  E  E  E    E  E  E  E  E  E    S  S  S  S  S  S  S  S  S  S  S  S
|----16-14-16-14-16-|----17-16-17-16-17-|-19-17-16----------------------------|
|-12----------------|-13----------------|----------18-17-15-------------------|
|-------------------|-------------------|-------------------17-14-13-14-16-14-|
|-------------------|-------------------|-------------------------------------|
|-------------------|-------------------|-------------------------------------|
|-------------------|-------------------|-------------------------------------|


                                   2.
   S  S  S  S  S  S  S  S  +Q        S  S  S  S  S  S  S  S  S  S  S  S
|--------------------------------||-19-17-16-17-19-19-20-19-17-16-19-20-|
|-------------------------------o||-------------------------------------|
|-13-----------------------------||-------------------------------------|
|----15-14-12--------------------||-------------------------------------|
|-------------15-14-12-11-(11)--o||-------------------------------------|
|--------------------------------||-------------------------------------|


                                                                 |--3--|
   S  S  S  S  S  S  S  S  S  S  S  S    S  S  S  S  S  S  S  S  E  E  E
|-19-17-20-19-17-16-19-17-16-17-16----|-------19-17----------------17-15-|
|----------------------------------18-|-17-15-------18-15----17-18-------|
|-------------------------------------|-------------------17-------------|
|-------------------------------------|----------------------------------|
|-------------------------------------|----------------------------------|
|-------------------------------------|----------------------------------|


                                     Am
                                      |--3--|  |------6-------|
   E  S  S  S  S  S  S  S  S  S  S    E  E  E  S  S  S  S  S  S  E  E
|----------------------------------|----------------------13-12-17-12---|
|-18-------------------------------|-------------------14---------------|
|----17-17-13-16-14-13-14-13-------|----------------14------------------|
|----------------------------15-14-|-12-10-14----10---------------------|
|----------------------------------|----------12------------------------|
|----------------------------------|------------------------------------|


                             |--3--|  |--3--|
   E  E  E  E  E  E    E  E  E  E  E  E  E  E
|-------------------|-------------------------|
|-13----------------|-------------------------|
|----14----14----14-|----12-------------------|
|-------14----------|----------------14-15-14-|
|-------------15----|-14----12-14-15----------|
|-------------------|-------------------------|


                               <  <    <  <  <
   |--3--|
   E  E  E Q  Q    W        Q  Q  Q    Q  Q  Q
|----------------|--------|----------|-------5--|
|----------------|--------|----------|-1--5-----|
|----------------|--------|----1--2--|----------|
|-12-------------|--------|----------|----------|
|----15-14-0-----|--------|----------|----------|
|----------------|--------|----------|----------|


                                                    E             Am
   <   <   <      <
   Q   Q   Q      H.         +H     Q    Wx5        E E E E E E   E E Q  Q
|-----12--16--||-17-------|-(17)-------|----------|-------------|-----------|
|-13----------||----------|------------|----------|-8-5---------|-----------|
|-------------||----------|------------|----------|-----7-5-4-5-|--------4--|
|-------------||----------|------------|----------|-------------|-7---6-----|
|-------------||----------|------------|----------|-------------|-----------|
|-------------||----------|------------|----------|-------------|-----------|


                                      A          Dm          B
  Q  E E E E   Q  Q  Q    Q  Q  E E   Q  Q  Q    Q  Q  E E   E E Q  Q
|------------|----------|-----------|----------|-----------|-----------|
|------------|-------3--|-5---------|-------5--|-6---------|--------7--|
|-5--2-------|----4-----|----5------|----6-----|----7------|-----6-----|
|------------|----------|-----------|----------|-----------|-----------|
|--------0---|-0--------|-------0---|-0--------|-------0---|-0---------|
|------------|----------|-----------|----------|-----------|-----------|


  E                           Am
  E E E E E E   E E E E E E   Q  Q  Q    Q  E E E E   E E Q  Q    Q  E E E E
|-------------|-------------|----------|------------|-----------|------------|
|-6-5---------|-------------|----------|------------|--------3--|-5----------|
|-----7-6-4---|-------------|-------4--|-5----------|-----4-----|----5-------|
|-----------7-|-6-----------|----6-----|----7-------|-----------|------------|
|-------------|---8-7-5-----|-0--------|--------0---|-0---------|--------0---|
|-------------|---------8-7-|----------|------------|-----------|------------|


  A           Dm           B
  E E Q  Q    Q  E E E E   E E Q  Q
|-----------|------------|-----------|
|--------5--|-6----------|--------7--|
|-----6-----|----7-------|-----8-----|
|-----------|------------|-----------|
|-0---------|--------0---|-0---------|
|-----------|------------|-----------|


  E
  E E E E E E   E E E E E E   E E  E E E E
|-------------|-------------|-8-7----------|
|-6-5---------|-------------|-----10-8-7---|
|-----7-5-4---|-------------|------------9-|
|-----------7-|-6-----------|--------------|
|-------------|---8-7-5-----|--------------|
|-------------|---------8-7-|--------------|


                    Em             B
  E  E E E  E E     E E E E E  E   E E E  E E E
|---------------||---------------|-7-8-7--------|
|---------------||o-------7-8-10-|-------10-8-7-|
|-8-------------||--9-8-9--------|--------------|
|---10-9-7------||---------------|--------------|
|----------10-9-||o--------------|--------------|
|---------------||---------------|--------------|


  Em         B           Em
  Q  Q  Q    H.          E E E E E  E
|----7-----|-----------|--------------|
|-8-----8--|-7tr8------|-------7-8-10-|
|----------|-----------|-9-8-9--------|
|----------|-----------|--------------|
|----------|-----------|--------------|
|----------|-----------|--------------|


                1.
  B              Em
                                                  ~
                                          |-3-|
  E E E  E E E    S  S  S  S  S  S  S  S  E E E   H    Q
|-7-8-7--------|-15-14-12-11--------------------|----------||
|-------10-8-7-|-------------13-12-10-----------|---------o||
|--------------|----------------------12-11-9-8-|-9--------||
|--------------|--------------------------------|----------||
|--------------|--------------------------------|---------o||
|--------------|--------------------------------|----------||


 2.
                        E                             Am
   |-3-| |-3-|  |-3-|    |--3--|  |--3--|  |--3--|     |--3--|
   E E E E E E  E E E    E  E  E  E  E  E  E  E  E     E  E  E  E E  E E
|-12p7-------7-12p7---|-16p12----------12-16p12----||-------12-17---17----|
|------8---8--------8-|-------12----12----------12-||----13---------------|
|--------9------------|----------13----------------||-14------------------|
|---------------------|----------------------------||---------------------|
|---------------------|----------------------------||---------------------|
|---------------------|----------------------------||---------------------|


  E             Am                  E
         ~~
   E  E  H       E  E  E  E  E  E    E  E  E  E  E  E
|-16-17-19----|-20-17-19-16-17----|-16----------------|
|-------------|----------------18-|----18-17-15-------|
|-------------|-------------------|-------------17-16-|
|-------------|-------------------|-------------------|
|-------------|-------------------|-------------------|
|-------------|-------------------|-------------------|


  Am                  E                   Am
                                           ~~
   E  E  E  E  E  E    E  E  E  E  E  E    Q   Q   Q
|-------------------|-12-13p12----------|-----12------|
|----------12-13-15-|----------15-13-12-|-13------13--|
|-14-13-14----------|-------------------|-------------|
|-------------------|-------------------|-------------|
|-------------------|-------------------|-------------|
|-------------------|-------------------|-------------|


  A            Dm            A
  Q   Q   Q    E E E E E E   E E E E E E
|-9----------|-------------|-5-6-5-------|
|----11--10--|-------5-6-8-|-------8-6-5-|
|------------|-7-6-7-------|-------------|
|------------|-------------|-------------|
|------------|-------------|-------------|
|------------|-------------|-------------|


  Dm         A           Dm
  ~
                         |-3-|
  Q  Q  Q    H.          E E E  E E  E E
|----5-----|-----------|-----5-10---10-----|
|-6-----6--|-5tr6------|---6---------------|
|----------|-----------|-7-----------------|
|----------|-----------|-------------------|
|----------|-----------|-------------------|
|----------|-----------|-------------------|


  A            Dm
        ~~
                                     |-3-|
  E  E  H       S  S  S S  S  S S  S E E E
|-9-10-12----|-13-12-10-9------------------|
|------------|------------11-10-8----------|
|------------|--------------------10-9-7-6-|
|------------|-----------------------------|
|------------|-----------------------------|
|------------|-----------------------------|


                 Gm            C                 F
                                                  ~~~
  Q   Q   Q       Q   Q   Q     Q       Q   Q     H.
|----10------||------10--13--|-12tr13--10------|-13-----|
|--------10--||o-11----------|-------------13--|--------|
|-7----------||--------------|-----------------|--------|
|------------||--------------|-----------------|--------|
|------------||o-------------|-----------------|--------|
|------------||--------------|-----------------|--------|


  Bb           Em7               A
  Q   Q   Q     Q   E  E  E  E    E  E  E  E  E  E
|----15--17--|-18--17-18-15-18-|-13-18----18-------|
|------------|-----------------|-------17----15-14-|
|------------|-----------------|-------------------|
|------------|-----------------|-------------------|
|------------|-----------------|-------------------|
|------------|-----------------|-------------------|


                     1.              2.
  Dm
                       ~~              ~~
   E  E  E  E  E  E    Q   Q   Q       H    Q
|----17-------------|-----10-------||----------|
|-15----18-15----14-|-15------10--o||-15-------|
|-------------14----|--------------||----------|
|-------------------|--------------||----------|
|-------------------|-------------o||----------|
|-------------------|--------------||----------|


  Dm            A             Dm
                               |--3--|  |--3--|  |--3--|
  E E E E E E   E E E E E E    E  E  E  E  E  E  E  E  E
|-------------|-5h6-5-------|-13p10----------10-13p10----|
|-------5-6-8-|-------8-6-5-|-------10----10----------10-|
|-7-6-7-------|-------------|----------10----------------|
|-------------|-------------|----------------------------|
|-------------|-------------|----------------------------|
|-------------|-------------|----------------------------|


  A                        Dm                           D
   |-3--| |-3--|  |-3--|    |--3--|  |--3--|  |--3--|    |--3--|  |--3--|
   E E  E E  E E  E E  E    E  E  E  E  E  E  E  E  E    E  E  E  E  E  E  +Q
|-12p9---------9-12p9----|-13p10----------10-13p10----|-14p11----------14-(14)----||
|------10---10--------10-|-------10----10----------10-|-------12----12------------||
|---------9--------------|----------10----------------|----------11---------------||
|------------------------|----------------------------|---------------------------||
|------------------------|----------------------------|---------------------------||
|------------------------|----------------------------|---------------------------||


  Em             B              Em
                                ~
  E E E E E  E   E E E  E E E   Q  Q  Q
|--------------|-7-8-7--------|----7-----|
|-------7-8-10-|-------10-8-7-|-8-----8--|
|-9-8-9--------|--------------|----------|
|--------------|--------------|----------|
|--------------|--------------|----------|
|--------------|--------------|----------|


  B           Em             B
  H.          E E E E E  E   E E E  E E E
|-----------|--------------|-7h8-7--------|
|-7tr8------|-------7-8-10-|-------10-8-7-|
|-----------|-9-8-9--------|--------------|
|-----------|--------------|--------------|
|-----------|--------------|--------------|
|-----------|--------------|--------------|


  Em                                               A
                           |-3-|             |-3-|
   S  S  S  S  S  S  S  S  E E E    S S S  S E E E E E
|-15-14-12-11--------------------|---------------------||
|-------------13-12-10-----------|---------------------||
|----------------------12-11-9-8-|---------------------||
|--------------------------------|-10-9-7--------------||
|--------------------------------|--------10-9-7-6-0---||
|--------------------------------|-------------------3-||


  Em
                    <    <                <
  E E Q  Q    Q  Q  Q    H.        +H     Q
|-----------|----------|---------|------------|
|-----------|----------|---------|------------|
|-----------|----------|-4-------|-(4)----5---|
|-----------|-------5--|---------|------------|
|-----------|----------|---------|------------|
|-0---------|----------|---------|------------|


     B      Em                    B                             Em
     <
  Q  H      +H.        Wx5        Q   E E E E   E  E E E  E E   E E Q  Q
|---------|----------|----------|-------------|---------------|-----------|
|---------|----------|----------|----10-8-7---|---------------|-----------|
|----4----|-(4)------|----------|-----------9-|-8-------------|-----------|
|---------|----------|----------|-------------|---10-9-7------|-----------|
|---------|----------|----------|-------------|----------10-9-|-7---------|
|---------|----------|----------|-------------|---------------|-----------|


              B       Em        E          A         E°
                      ~                    ~~
  W        Q  Q  Q    H    Q    Q  Q  Q    H.        Q  Q  Q
|--------|----------|---------|----------|---------|----------|
|--------|----------|---------|----------|---------|----------|
|--------|-------2--|-4-------|-------4--|-5-------|-------6--|
|--------|----4-----|---------|----6-----|---------|----6-----|
|--------|----------|---------|----------|---------|----------|
|--------|----------|---------|----------|---------|----------|


  B                              Em
                                 |-3-|
  Q   E E E E   E  E E E  E E    E E E  E E  E E
|-------------|---------------||-----7-12---12---|
|----10-8-7---|---------------||---8-------------|
|-8---------9-|-8-------------||-9---------------|
|-------------|---10-9-7------||-----------------|
|-------------|----------10-9-||-----------------|
|-------------|---------------||-----------------|


  B                   Em             B        Em
                       ~~                             ~~~~
   E  E  E  E  E  E    Q  Q   a       +Q       E     +Q.   Q
|-11-12-11----------|--------21pb23==(21)r--|-21b24-(21)-------*|
|----------13-12-10-|-----------------------|------------------*|
|-------------------|-12--------------------|------------------*|
|-------------------|-----------------------|------------------*|
|-------------------|-----------------------|------------------*|
|-------------------|-----------------------|------------------*|



Duration Legend
---------------
W - whole; H - half; Q - quarter; E - 8th; S - 16th; T - 32nd; X - 64th; a - acciaccatura
+ - note tied to previous; . - note dotted; .. - note double dotted
Uncapitalized letters represent notes that are staccato (1/2 duration)
Irregular groupings are notated above the duration line
Duration letters will always appear directly above the note/fret number it represents the
duration for.  Duration letters with no fret number below them represent rests.  Multi-
bar rests are notated in the form Wxn, where n is the number of bars to rest for.  Low
melody durations appear below the staff

Tablature Legend
----------------
 h   - hammer-on
 p   - pull-off
 b   - bend
 pb  - pre-bend
 r   - bend release (if no number after the r, then release immediately)
 /\  - slide into or out of (from/to "nowhere")
 s   - legato slide
 S   - shift slide
 - natural harmonic
[n]  - artificial harmonic
n(n) - tapped harmonic
 ~   - vibrato
 tr  - trill
 T   - tap
 TP  - trem. picking
 PM  - palm muting
\n/  - tremolo bar dip; n = amount to dip
 \n  - tremolo bar down
 n/  - tremolo bar up
/n\  - tremolo bar inverted dip
 =   - hold bend; also acts as connecting device for hammers/pulls
 <> - volume swell (louder/softer)
 x   - on rhythm slash represents muted slash
 o   - on rhythm slash represents single note slash

Misc Legend
-----------
 |  - bar
||  - double bar
||o - repeat start
o|| - repeat end
*|  - double bar (ending)
 :  - bar (freetime)
 $  - Segno
 &  - Coda
Tempo markers -  = BPM(8/16=s8/s16), where s8 = swing 8ths, s16 = swing 16ths

Добавлено: 26.04.2012
Другие материалы по этой песне:
  • Аккорды и текст

Страница создана 26.04.2012
http://primanota.ru/yngwie-malmsteen/fugue-live-chords.htm
Привет, Гость.
Предлагаем пройти революционный курс по гитаре.
Подарок от PrimaNota.Ru, забирай!