PrimaNota.ru - самый крупный в мире бесплатный архив песенных текстов, аккордов, табулатур и нот


Yngwie Malmsteen - Comming Bach - таба, видео

Регистрация Запомнить меня
Войти через:  Facebook Google Twitter Vk Yandex Mail.ru

Yngwie Malmsteen - Comming Bach - таба, видео

Печатать
Просмотров: 124
Coming Bach                                 
Yngwie J. Malmsteen
Upnorth

                                                                  
D#||--0-2-3--2-0----0-2------------|--------------------------0--|
A#||-------------4------x-0-2-4-5~-|--3-1-0-----------0----------|
F#||-------------------------------|---------2-0--------2-0------|
C#||-------------------------------|-------------4~---------4-2--|
G#||---------0---2--0--------------|---------0---2~-------2------|
D#||--3-2-0-----------3-----2---0~-|--2---3-----------3-------0h-|


                                                                      
--0-2-3--2-0----0-2------------|-------------------------------------|
-------------4------x-0-2-4-5~-|--3-1-0--------------0------------12-|
-------------------------------|---------2-0-----------0-------12----|
-------------------------------|-------------4h5h4-----0----12-------|
---------0---2--0--------------|---------3---5-----5~--2-------------|
--3-2-0-----------3-----2---0~-|--2---3----------------3-------------|


                                 
-----------------3--------------|
--0---3-0---1-0----3-5-3-0-3-1--|
----0-----2---------------------|
----------0---------------------|
-----------------2---3-------0--|
--3---2-------3--------4---2----|


                                                
-----------------------------------------------|
--0---------0-1-0------------------------------|
----1-2h1h2-------------------2----------------|
--0-----2-----2---2----------------------------|
----------0-----------2-0-3---0h2h0------------|
----------------0---3-------3-------3h2h3h2h3--|


                                                                 
---------3-------------5------|---------------------------------|
----1-0----3-5--0-3-1----5-7--|--3-2-0-3h4h3---0-0--------------|
--2---------------------------|------------4--------------------|
--0---------------------------|----2----------------------------|
---------2---3------0--4---5--|--2---------------2-1-2-4h6~-----|
------3---------4-------------|--------------2------------------|


                                                                     
--7----------5--0-3-2h3h2h3h2h0---3--|----------5-------------0-----|
----7-9--7-5--------------------3----|--3-6-5-----5-7~-2-5-4~---0~--|
-------------------------------------|--------x---------------------|
---------0----------0----------------|------------------------------|
------7------4--0-------------3---2--|------3---2---0~-----2~-------|
--7----------------------------------|-----------------2------4-----|


                                                                        
--------------------------------|---------------------------------|---||
----3---0---1~-------0----------|---------------------------------|---||
------2--------0-2-------0~-----|---------------------------------|---||
--2h4-----1/2~-------1-4----4h2-|--0/7--5--4h5h4-5h4h5h4h2--2-----|---||
-------------------4-----7~-0---|-------0-------------------------|---||
--------3--------2--------------|---------------------------0-----|---||


     
Добавлено: 08.12.2013
Другие материалы по этой песне:
  • Аккорды и текст

Страница создана 09.09.2013
http://primanota.ru/yngwie-malmsteen/comming-bach-chords.htm
Привет, Гость.
Предлагаем пройти революционный курс по гитаре.
Подарок от PrimaNota.Ru, забирай!