PrimaNota.ru - самый крупный в мире бесплатный архив песенных текстов, аккордов, табулатур и нот


Ylvis - Intolerant - аккорды и текст, видео

Регистрация Запомнить меня
Войти через:  Facebook Google Twitter Vk Yandex Mail.ru

Ylvis - Intolerant - аккорды и текст, видео

Печатать
Просмотров: 317
Intolerant
Ylvis
Artist: Ylvis
Chords by: Alnel Vincent T. Alico
Email: alnelextreme@yahoo.com

STANDARD TUNING
No capo

Chords:   EADGBe

Cm        x35543
Fm        xx3211
Bb or A#  x13331
G         355433

Intro: Cm (4x)

You can play this repeatedly throughout the song,
most especially on the parts where it's played louder:

e|------16---15--------------16---15--------------|
B|-13-------------16-15-13-------------15-16-(13)-|
G|------------------------------------------------|
D|------------------------------------------------|
A|------------------------------------------------|
E|------------------------------------------------|

Verse 1: Fm Cm Bb Cm Fm Cm Bb (2x)

    Fm                        Cm
     Since the day you walked into my life 
        Bb
     I knew that it was meant to be 
 Cm Fm                 Cm
     So why am I lying sleepless at night 
         Bb
     So scared that you'll be leavin' me 
    Fm                         Cm
     Because the secret that I carry inside 
            Bb
     I'm afraid that it will make you see 
   Cm        Fm
     What I am, what I'm not
                Cm                          Bb
     This disease that I've got deep inside of me 

Chorus 1: Cm Fm Cm Bb (3x) then G

  Cm Fm           Cm                      Bb
     I can't drink what you drink I'm different 
  Cm Fm           Cm                         Bb
     No more lies, painful cries, I'm so different 
  Cm Fm           Cm                     Bb
     I can't take another cake, I'm intolerant
                             G
     I'm intolerant, so intolerant

Interlude 1: Cm (4x)

e|------16---15--------------16---15--------------|
B|-13-------------16-15-13-------------15-16-(13)-|
G|------------------------------------------------|
D|------------------------------------------------|
A|------------------------------------------------|
E|------------------------------------------------|
     
     (ah I'm intolerant) 
     (ah so intolerant) 
     (I am intolerant, i-i-i-intolerant) 

Verse 2: (Cm) Fm Cm Bb (2x)

    Fm                        Cm
     You turn around and look into my eyes and say 
     Bb
     Boy, I've got a secret too 
 Cm Fm                       Cm
     If you keep offering me bread all the time 
       Bb
     I cannot spend my life with you 

Chorus 2: Cm Fm Cm Bb (3x) then G

  Cm Fm               Cm                   Bb
     Now I see, it's not just me who's different (we're different) 
   Cm     Fm           Cm                       Bb
     It's like a curse, even worse, you are different (we're different)
   Cm  Fm           Cm                        Bb
     Trace of rye, you could die, you're intolerant
                                G
     You're intolerant, so intolerant 

After this chorus, there are no chords played for 4 counts after the "hey".
Then, below plays as follows.

Interlude 2: Cm (4x)

e|-15-------------*16---15------------------------|
B|------16---15--------------16---15--------------|
G|------------------------------------------------|
D|------------------------------------------------|
A|------------------------------------------------|
E|------------------------------------------------|

"*" indicates that beyond this point everything should be repeated
    3 times.

Chorus 3: (Cm) Fm Cm Bb (4x) then G

     Fm        Cm                  Bb
     Suddenly, now I see we are tolerant 
  Cm Fm              Cm                      Bb
     Now we've found common ground, we are tolerant 
  Cm Fm       Cm                    Bb
     Finally, you and me, we are tolerant
   Cm          Fm  Cm           Bb G
     We are tolerant, we are tolerant 

Outro: (Cm) Fm Cm Bb (3x) then G

     Fm       Cm                    Bb
     Finally, you and me, we are tolerant 
  Cm Fm       Cm                      Bb
     Finally, you and me, we're so tolerant
  Cm Fm       Cm                    Bb
     Finally, you and me, we are tolerant
                          G
     So tolerant and intolerant



Enjoy!
-AlnelExtreme-
Добавлено: 26.07.2015
Другие материалы по этой песне:
  • Аккорды и текст

Страница создана 26.07.2015
http://primanota.ru/ylvis/intolerant-chords.htm
Привет, Гость.
Предлагаем пройти революционный курс по гитаре.
Подарок от PrimaNota.Ru, забирай!