PrimaNota.ru - самый крупный в мире бесплатный архив песенных текстов, аккордов, табулатур и нот


Yiruma - River Flow - аккорды и текст, видео

Регистрация Запомнить меня
Войти через:  Facebook Google Twitter Vk Yandex Mail.ru

Yiruma - River Flow - аккорды и текст, видео

Печатать
Просмотров: 93
River Flow
Yiruma
E||---5--4--5--4--5-----5-----|------------|---5--4--5--4--5-----5----| 
B||------------------5-----3--|------------|------------------5-----3-| 
G||---------------------------|--2---4-----|--------------------------| 
D||---------------------------|------------|--------------------------| 
A||---------------------------|------------|--------------------------| 
e||---------------------------|------------|--------------------------| 
 
E||-------------|--5--4--5--4--5-----5--------------------------------| 
B||-------------|-----------------5------3----2--3--5-----2-----------| 
G||--2---4------|--------------------------------------------4--------| 
D||-------------|-----------------------------------------------------| 
A||-------------|-----------------------------------------------------| 
e||-------------|-----------------------------------------------------| 
 
E||------------------------|------------------------------------------| 
B||------------------------|--------5--------3---2---0----------------| 
G||--2--1--2-----2--4--6---|-6--7-------------------------------------| 
D||-----------2------------|------------------------------------------| 
A||------------------------|------------------------------------------| 
e||------------------------|------------------------------------------| 
 
    (optional) 
E||-------------|--5--4--5--4--5-----5--------------------9---7-------| 
B||-------------|-----------------5-----3----2---3--5------------------| 
G||--2---4------|-----------------------------------------------------| 
D||-------------|-----------------------------------------------------| 
A||-------------|-----------------------------------------------------| 
e||-------------|-----------------------------------------------------| 
 
E||---9--7--5--4--5--|------------------------------------| 
B||------------------|--------------------5---------------| 
G||------------------|--2--4--6----6--7--------7--6--4----| 
D||------------------|------------------------------------| 
A||------------------|------------------------------------| 
e||------------------|------------------------------------| 
 
E||--5--7--5--4--5-----|--5--7--5--4--5------5--7--9--10--12--9--7--5--4---| 
B||-----------------5--|-----------------5---------------------------------| 
G||--------------------|---------------------------------------------------| 
D||--------------------|---------------------------------------------------| 
A||--------------------|---------------------------------------------------| 
e||--------------------|---------------------------------------------------| 
 
E||--5--7--5--4--5-----|--5--7--5--4--5------5--7--9--10--12--9--7--5--4---| 
B||-----------------5--|-----------------5--------------------------------| 
G||--------------------|--------------------------------------------------| 
D||--------------------|--------------------------------------------------| 
A||--------------------|--------------------------------------------------| 
e||--------------------|--------------------------------------------------| 
 
E||--5-5--7--5--4--5-----|-5--5--7--5--4--5------5--5--7--9--10--12--9--7--5--4--| 
B||-------------------5--|-------------------5-----------------------------------| 
G||----------------------|-------------------------------------------------------| 
D||----------------------|-------------------------------------------------------| 
A||----------------------|-------------------------------------------------------| 
e||----------------------|-------------------------------------------------------| 
E||--5-5--7--5--4--5-----|-5--5--7--5--4--5------5--5--7--9--10--12--9--7--5--4--| 
B||-------------------5--|-------------------5-----------------------------------| 
G||----------------------|-------------------------------------------------------| 
D||----------------------|-------------------------------------------------------| 
A||----------------------|-------------------------------------------------------| 
e||----------------------|-------------------------------------------------------| 
 
    (optional) 
E||-------------|--5--4--5--4--5-----5--------------------------------| 
B||-------------|-----------------5------3----2--3--5-----2-----------| 
G||--2---4------|--------------------------------------------4--------| 
D||-------------|-----------------------------------------------------| 
A||-------------|-----------------------------------------------------| 
e||-------------|-----------------------------------------------------| 
 
E||------------------------|------------------------------------------| 
B||------------------------|--------5--------3---2---0----------------| 
G||--2--1--2-----2--4--6---|-6--7-------------------------------------| 
D||-----------2------------|------------------------------------------| 
A||------------------------|------------------------------------------| 
e||------------------------|------------------------------------------| 
 
E||-------------|--5--4--5--4--5-----5--------------------9---7-------| 
B||-------------|-----------------5------3----2--3--5-----------------| 
G||--2---4------|-----------------------------------------------------| 
D||-------------|-----------------------------------------------------| 
A||-------------|-----------------------------------------------------| 
e||-------------|-----------------------------------------------------| 
 
E||---9--7--5--4--5--|------------------------------------| 
B||------------------|--------------------5---------------| 
G||------------------|--2--4--6----6--7--------7--6--4----| 
D||------------------|------------------------------------| 
A||------------------|------------------------------------| 
e||------------------|------------------------------------| 
 
 
E||--5-5--7--5--4--5-----|-5--5--7--5--4--5------5--5--7--9--10--12--9--7--5--4--| 
B||-------------------5--|-------------------5-----------------------------------| 
G||----------------------|-------------------------------------------------------| 
D||----------------------|-------------------------------------------------------| 
A||----------------------|-------------------------------------------------------| 
e||----------------------|-------------------------------------------------------| 
 
E||--5-5--7--5--4--5-----|-5--5--7--5--4--5------5--5--7--9--10--12--9--7--5--4--| 
B||-------------------5--|-------------------5-----------------------------------| 
G||----------------------|-------------------------------------------------------| 
D||----------------------|-------------------------------------------------------| 
A||----------------------|-------------------------------------------------------| 
e||----------------------|-------------------------------------------------------| 
 
E||--5-5--7--5--4--5-----|-5--5--7--5--4--5------5--5--7--9--10--12--9--7--5--4--| 
B||-------------------5--|-------------------5-----------------------------------| 
G||----------------------|-------------------------------------------------------| 
D||----------------------|-------------------------------------------------------| 
A||----------------------|-------------------------------------------------------| 
e||----------------------|--------------------------------------
Добавлено: 12.06.2016
Другие материалы по этой песне:
  • Аккорды и текст

Страница создана 12.06.2016
http://primanota.ru/yiruma/river-flow-chords.htm
Привет, Гость.
Предлагаем пройти революционный курс по гитаре.
Подарок от PrimaNota.Ru, забирай!