PrimaNota.ru - самый крупный в мире бесплатный архив песенных текстов, аккордов, табулатур и нот


Yiruma - Indigo - таба, видео

Регистрация Запомнить меня
Войти через:  Facebook Google Twitter Vk Yandex Mail.ru

Yiruma - Indigo - таба, видео

Печатать
Просмотров: 237
-------------------------------------------------------------------------------
                             SONG NAME - Band Name
-------------------------------------------------------------------------------
Tabbed by:Matiszszumlu
E-mail:lilianaszabo97@gmail.com

Tuning:

e|-----------10-----------------------------10-------------------------------|
B|-------10------13--11-10--8--10--------10----13-11-10-8--------------------|
G|----7-------------------------------7--------------------------------------|
D|---------------------------------------------------------------------------|
A|---------------------------------------------------------------------------|
E|---------------------------------------------------------------------------|

e|---------10----------------------------------------------------------------|
B|-----10------13--11--10-8-6-8-10-8--3--5-6-8-10-8-6-5-3--------------------|
G|--7------------------------------------------------------------------------|
D|------------------------------------------------------0--------------------|
A|---------------------------------------------------------------------------|
E|---------------------------------------------------------------------------|



************************************

| /   slide up
| \   slide down
| h   hammer-on
| p   pull-off
| ~   vibrato
| +   harmonic
| x   Mute note
| b   Bend
| pb  Pre-bend
| br  Bend release
| pbr Pre-bend release
| brb Bend release bend

************************************
Добавлено: 17.05.2015
Другие материалы по этой песне:

Страница создана 24.02.2012
http://primanota.ru/yiruma/indigo-chords.htm
Привет, Гость.
Предлагаем пройти революционный курс по гитаре.
Подарок от PrimaNota.Ru, забирай!