PrimaNota.ru - самый крупный в мире бесплатный архив песенных текстов, аккордов, табулатур и нот


Yes - Ive Seen All Good People Your Move - таба, видео

Регистрация Запомнить меня
Войти через:  Facebook Google Twitter Vk Yandex Mail.ru

Yes - Ive Seen All Good People Your Move - таба, видео

Печатать
Просмотров: 67
Авторы: Jon Anderson, Chris Squire

------------------------------------------------------------------------------------------
                       I'VE SEEN ALL GOOD PEOPLE (YOUR MOVE) - Yes
                                      (Jon Anderson)
                                   The Yes Album [1971]
------------------------------------------------------------------------------------------


Tabbed by: varannion
Email:     dm_hughes1@hotmail.com


Tuning: E G C G C E (low to high)
Capo:   fourth fret (Notes at the fourth fret are considered to be open and are 
notated as '0'. Fret numbers remain unchanged for all other notes)


  Intro (a capella vocal harmony)

    I've seen all good people turn their heads each  day  so  satisfied     I'm     on
   N.C.(E)          (D)                 (C)                 (G)                    (A)
e|----------------------|--------------------|--------------------|--------------------|
B|----------------------|--------------------|--------------------|--------------------|
G|----------------------|--------------------|--------------------|--------------------|
D|----------------------|--------------------|--------------------|--------------------|
A|----------------------|--------------------|--------------------|--------------------|
E|----------------------|--------------------|--------------------|--------------------|


           my   way                           I've seen all good people turn their heads
                                                 (E)          (D)                 (C)
e|----------------------|--------------------|--------------------|--------------------|
B|----------------------|--------------------|--------------------|--------------------|
G|----------------------|--------------------|--------------------|--------------------|
D|----------------------|--------------------|--------------------|--------------------|
A|----------------------|--------------------|--------------------|--------------------|
E|----------------------|--------------------|--------------------|--------------------|


      each  day  so  satisfied     I'm     on        my   way
                   (G)                    (A)
e|----------------------|--------------------|--------------------|
B|----------------------|--------------------|--------------------|
G|----------------------|--------------------|--------------------|
D|----------------------|--------------------|--------------------|
A|----------------------|--------------------|--------------------|
E|----------------------|--------------------|--------------------|

  12-string acoustic guitar
                                              |---------------- let ring ----------------|
 N.C.(C)
           
e|--------0--0/5--0--0/5--0--9--|------7------0-(0)----------|------0--0/5--0--0/5--0-----|
B|------------------------------|-------------------0--------|----------------------------|
G|--------0--0-6--0--0-6--0--9--|------8------0-(0)----0-----|------0--0/6--0--0/6--0-----|
D|------------------------------|-------------------------0--|--(0)--------------------6--|
A|------------------------------|----------------------------|----------------------------|
E|------------------------------|----------------------------|----------------------------|
               >             >         >      >

             |------------------ let ring ------------------|


e|------------------------------|------0--0/5--0--0/5--0--9--|------7-----11----9-----14--|
B|---------------------0--------|----------------------------|----------------------------|
G|------------------------6-----|------0--0-6--0--0-6--0--9--|------8-----11----9-----14--|
D|----0------8---(8)---------8--|----------------------------|----------------------------|
A|------------------------------|----------------------------|----------------------------|
E|------------------------------|----------------------------|----------------------------|
                                            >             >         >     >     >     >

      |------------------------- let ring --------------------------|


e|---(14)--14---------14---------14--|---------16---------14---------|
C|-------------0----------0----------|--0----------0----------0------|
G|---(14)---------14---------14------|-----14---------14---------14--|
C|-----------------------------------|-------------------------------|
G|-----------------------------------|-------------------------------|
E|-----------------------------------|-------------------------------|
    Verse 1

          Take a straight   and     stronger course to the  corner   of   your   life
      E                          F#m/E                      Emaj7
     (C)                        (Dm/C)                     (Cmaj7)
e|----0-----0--0-(0)-0--0--0--|--5--5-----5-(5)-5--5--5--|--7--7--7--7--7--7--7--7--|
C|----0-----0--0-(0)-0--0--0--|--6--6-----6-(6)-6--6--6--|--8--8--8--8--8--8--8--8--|
G|----0-----0--0-(0)-0--0--0--|--6--6-----6-(6)-6--6--6--|--8--8--8--8--8--8--8--8--|
C|----0-----0--0-(0)-0--0--0--|--0--0-----6-(0)-0--0--0--|--0--0--0--0--0--0--0--0--|
G|----0-----0--0-(0)-0--0--0--|--0--0-----0-(0)-0--0--0--|--0--0--0--0--0--0--0--0--|
E|----------------------------|--------------------------|--------------------------|
      >        >                    >     >                 >        >

                                     Make the white queen run  so  fast       
      F#m/E                      E                          F#m/E     
     (Dm/C)                     (C)                        (Dm/C)
e|----5--5-----5-(5)-5--5--5--|--0--0--0--0-(0)-0--0--0--|--5--5-----5-(5)-5--5--0--|
C|----6--6-----6-(6)-6--6--6--|--0--0--0--0-(0)-0--0--0--|--6--6-----6-(6)-6--6--0--|
G|----6--6-----6-(6)-6--6--6--|--0--0--0--0-(0)-0--0--0--|--6--6-----6-(6)-6--6--0--|
C|----0--0-----0-(0)-0--0--0--|--0--0--0--0-(0)-0--0--0--|--0--0-----0-(0)-0--0--0--|
G|----0--0-----0-(0)-0--0--0--|--0--0--0--0-(0)-0--0--0--|--0--0-----0-(0)-0--0--0--|
E|----------------------------|--------------------------|--------------------------|
      >  >     >                 >        >                    >     >

              she hasn't got     time          to make you     wise
      Emaj7                      F#m/E                      E
     (Cmaj7)                    (Dm/C)                     (C)
e|----7--7-----7-(7)-7--7-----|--5--5--5--5-(5)-5--5--5--|--0--0--0--0-(0)-0--0--0--|
C|----8--8-----8-(8)-8--8-----|--6--6--6--6-(6)-6--6--6--|--0--0--0--0-(0)-0--0--0--|
G|----8--8-----8-(8)-8--8-----|--6--6--6--6-(6)-6--6--6--|--0--0--0--0-(0)-0--0--0--|
C|----0--0-----0-(0)-0--0-----|--0--0--0--0-(0)-0--0--0--|--0--0--0--0-(0)-0--0--0--|
G|----0--0-----0-(0)-0--0-----|--0--0--0--0-(0)-0--0--0--|--0--0--0--0-(0)-0--0--0--|
E|----------------------------|--------------------------|--------------------------|
      >        >                 >  >     >                 >        >


      F#m/E                E     Emaj7                E     F#m/E
     (Dm/C)               (C)   (Cmaj7)              (C)   (Dm/C)
e|----5--5-----5-(5)-5--5--0--|--7--7--7--7-(7)-7--7--0--|--5--5--5--5-(5)-5--5--5--|
C|----6--6-----6-(6)-6--6--0--|--8--8--8--8-(8)-8--8--0--|--6--6--6--6-(6)-6--6--6--|
G|----6--6-----6-(6)-6--6--0--|--8--8--8--8-(8)-8--8--0--|--6--6--6--6-(6)-6--6--6--|
C|----0--0-----0-(0)-0--0--0--|--0--0--0--0-(0)-0--0--0--|--0--0--0--0-(0)-0--0--0--|
G|----0--0-----0-(0)-0--0--0--|--0--0--0--0-(0)-0--0--0--|--0--0--0--0-(0)-0--0--0--|
E|----------------------------|--------------------------|--------------------------|
         >     >                 >        >                 >  >     >

    'Cause  is time  is time    in time with your time and    is news            is    
      E                          F#m/E                E     Emaj7
     (C)                        (Dm/C)               (C)   (Cmaj7)
e|----0--0--0--0-(0)-0--0--0--|--5--5--5--5--5-----5--0--|--7--7--7--7-(7)-7--7--7--|
C|----0--0--0--0-(0)-0--0--0--|--6--6--6--6--6-----6--0--|--8--8--8--8-(8)-8--8--8--|
G|----0--0--0--0-(0)-0--0--0--|--6--6--6--6--6-----6--0--|--8--8--8--8-(8)-8--8--8--|
C|----0--0--0--0-(0)-0--0--0--|--0--0--0--0--0-----0--0--|--0--0--0--0-(0)-0--0--0--|
G|----0--0--0--0-(0)-0--0--0--|--0--0--0--0--0-----0--0--|--0--0--0--0-(0)-0--0--0--|
E|----------------------------|--------------------------|--------------------------|


      captured                                                   For    the    Queen
      A/E
     (F/C)
e|----9--9--9--9--9--9--9--9--|--9--9--9--9--9--9--9--9--|--9--9--9--9-(9)-9-----9--|
C|----9--9--9--9--9--9--9--9--|--9--9--9--9--9--9--9--9--|--9--9--9--9-(9)-9-----9--|
G|----9--9--9--9--9--9--9--9--|--9--9--9--9--9--9--9--9--|--9--9--9--9-(9)-9-----9--|
C|----0--0--0--0--0--0--0--0--|--0--0--0--0--0--0--0--0--|--0--0--0--0-(0)-0-----0--|
G|----0--0--0--0--0--0--0--0--|--0--0--0--0--0--0--0--0--|--0--0--0--0-(0)-0-----0--|
E|----------------------------|--------------------------|--------------------------|
                               Verse 2

               to use            Move  me  on     to  any   black square
                                 E                          F#m/E                E
                                (C)                        (Dm/C)               (C)
e|----9--9--9--9-(9)-9--9-----|--0-----0--0--0--0--0--0--|--5--5--5--5-(5)-5--5--0--|
C|----9--9--9--9-(9)-9--9-----|--0-----0--0--0--0--0--0--|--6--6--6--6-(6)-6--6--0--|
G|----9--9--9--9-(9)-9--9-----|--0-----0--0--0--0--0--0--|--6--6--6--6-(6)-6--6--0--|
C|----0--0--0--0-(0)-0--0-----|--0-----0--0--0--0--0--0--|--0--0--0--0-(0)-0--0--0--|
G|----0--0--0--0-(0)-0--0-----|--0-----0--0--0--0--0--0--|--0--0--0--0-(0)-0--0--0--|
E|----------------------------|--------------------------|--------------------------|


      Use me any time            you want                Just remember that
      Emaj7                      F#m/E                      E
     (Cmaj7)                    (Dm/C)                     (C)
e|----7--7--7--7-(7)-7--7-----|--5--5--5--5-(5)-5--5--5--|--0--0--0--0-(0)-0--0--0--|
C|----8--8--8--8-(8)-8--8-----|--6--6--6--6-(6)-6--6--6--|--0--0--0--0-(0)-0--0--0--|
G|----8--8--8--8-(8)-8--8-----|--6--6--6--6-(6)-6--6--6--|--0--0--0--0-(0)-0--0--0--|
C|----0--0--0--0-(0)-0--0-----|--0--0--0--0-(0)-0--0--0--|--0--0--0--0-(0)-0--0--0--|
G|----0--0--0--0-(0)-0--0-----|--0--0--0--0-(0)-0--0--0--|--0--0--0--0-(0)-0--0--0--|
E|----------------------------|--------------------------|--------------------------|


      the goal                    is for us all to capture              all we want
      F#m/E                E     Emaj7                E     F#m/E
     (Dm/C)               (C)   (Cmaj7)              (C)   (Dm/C)
e|----5--5--5--5-(5)-5--5--0--|--7--7--7--7-(7)-7--7--0--|--5--5--5--5-(5)-5--5--5--|
C|----6--6--6--6-(6)-6--6--0--|--8--8--8--8-(8)-8--8--0--|--6--6--6--6-(6)-6--6--6--|
G|----6--6--6--6-(6)-6--6--0--|--8--8--8--8-(8)-8--8--0--|--6--6--6--6-(6)-6--6--6--|
C|----0--0--0--0-(0)-0--0--0--|--0--0--0--0-(0)-0--0--0--|--0--0--0--0-(0)-0--0--0--|
G|----0--0--0--0-(0)-0--0--0--|--0--0--0--0-(0)-0--0--0--|--0--0--0--0-(0)-0--0--0--|
E|----------------------------|--------------------------|--------------------------|

     (Move              me on                      to       any                black
                                 Yeah                       Yeah                Yeah
      E                          F#m/E                E     Emaj7                E
     (C)                        (Dm/C)               (C)   (Cmaj7)              (C)
e|----0--0--0--0-(0)-0--0--0--|--5--5--5--5-(5)-5--5--0--|--7--7--7--7-(7)-7--7--0--|
C|----0--0--0--0-(0)-0--0--0--|--6--6--6--6-(6)-6--6--0--|--8--8--8--8-(8)-8--8--0--|
G|----0--0--0--0-(0)-0--0--0--|--6--6--6--6-(6)-6--6--0--|--8--8--8--8-(8)-8--8--0--|
C|----0--0--0--0-(0)-0--0--0--|--0--0--0--0--0--0--0--0--|--0--0--0--0-(0)-0--0--0--|
G|----0--0--0--0-(0)-0--0--0--|--0--0--0--0--0--0--0--0--|--0--0--0--0-(0)-0--0--0--|
E|----------------------------|--------------------------|--------------------------|
                               Verse 3
           square)             
       Yeah    Yeah             Don't  surround  yourself      with yourself
      F#m/E                      E                          F#m/E                E
     (Dm/C)                     (C)                        (Dm/C)               (C)
e|----5--5--5--5-(5)-5--5--5--|--0--0--0--0--0--0--0--0--|--5--5--5--5-(5)-5--5--0--|
C|----6--6--6--6-(6)-6--6--6--|--0--0--0--0--0--0--0--0--|--6--6--6--6-(6)-6--6--0--|
G|----6--6--6--6-(6)-6--6--6--|--0--0--0--0--0--0--0--0--|--6--6--6--6-(6)-6--6--0--|
C|----0--0--0--0-(0)-0--0--0--|--0--0--0--0--0--0--0--0--|--0--0--0--0-(0)-0--0--0--|
G|----0--0--0--0-(0)-0--0--0--|--0--0--0--0--0--0--0--0--|--0--0--0--0-(0)-0--0--0--|
E|----------------------------|--------------------------|--------------------------|


       Move on back two squares                               Send an  instant  karma
      Emaj7                      F#m/E                      E
     (Cmaj7)                    (Dm/C)                     (C)
e|----7--7--7--7-(7)-7--7-----|--5--5--5--5-(5)-5--5--5--|--0--0--0--0-(0)-0--0--0--|
C|----8--8--8--8-(8)-8--8-----|--6--6--6--6-(6)-6--6--6--|--0--0--0--0-(0)-0--0--0--|
G|----8--8--8--8-(8)-8--8-----|--6--6--6--6-(6)-6--6--6--|--0--0--0--0-(0)-0--0--0--|
C|----0--0--0--0-(0)-0--0-----|--0--0--0--0-(0)-0--0--0--|--0--0--0--0-(0)-0--0--0--|
G|----0--0--0--0-(0)-0--0-----|--0--0--0--0-(0)-0--0--0--|--0--0--0--0-(0)-0--0--0--|
E|----------------------------|--------------------------|--------------------------|


            to me                         Initial it             with loving
      F#m/E                E     Emaj7                E     F#m/E
     (Dm/C)               (C)   (Cmaj7)              (C)   (Dm/C)
e|----5--5--5--5-(5)-5--5--0--|--7--7--7--7-(7)-7--7--0--|--5--5--5--5-(5)-5--5--5--|
C|----6--6--6--6-(6)-6--6--0--|--8--8--8--8-(8)-8--8--0--|--6--6--6--6-(6)-6--6--6--|
G|----6--6--6--6-(6)-6--6--0--|--8--8--8--8-(8)-8--8--0--|--6--6--6--6-(6)-6--6--6--|
C|----0--0--0--0-(0)-0--0--0--|--0--0--0--0-(0)-0--0--0--|--0--0--0--0-(0)-0--0--0--|
G|----0--0--0--0-(0)-0--0--0--|--0--0--0--0-(0)-0--0--0--|--0--0--0--0-(0)-0--0--0--|
E|----------------------------|--------------------------|--------------------------|

     (Don't            surround                  yourself)
      care                                       yourself
      E                          F#m/E                E     Emaj7                E
     (C)                        (Dm/C)               (C)   (Cmaj7)              (C)
e|----0--0--0--0-(0)-0--0--0--|--5--5--5--5-(5)-5--5--0--|--7--7--7--7-(7)-7--7--0--|
C|----0--0--0--0-(0)-0--0--0--|--6--6--6--6-(6)-6--6--0--|--8--8--8--8-(8)-8--8--0--|
G|----0--0--0--0-(0)-0--0--0--|--6--6--6--6-(6)-6--6--0--|--8--8--8--8-(8)-8--8--0--|
C|----0--0--0--0-(0)-0--0--0--|--0--0--0--0--0--0--0--0--|--0--0--0--0-(0)-0--0--0--|
G|----0--0--0--0-(0)-0--0--0--|--0--0--0--0--0--0--0--0--|--0--0--0--0-(0)-0--0--0--|
E|----------------------------|--------------------------|--------------------------|


                               'Cause  is time  is time    in time with your time and
      F#m/E                      E                          F#m/E                E
     (Dm/C)                     (C)                        (Dm/C)               (C)
e|----5--5--5--5-(5)-5--5--5--|--0--0--0--0-(0)-0--0--0--|--5--5--5--5-(5)-5--5--0--|
C|----6--6--6--6-(6)-6--6--6--|--0--0--0--0-(0)-0--0--0--|--6--6--6--6-(6)-6--6--0--|
G|----6--6--6--6-(6)-6--6--6--|--0--0--0--0-(0)-0--0--0--|--6--6--6--6-(6)-6--6--0--|
C|----0--0--0--0-(0)-0--0--0--|--0--0--0--0-(0)-0--0--0--|--0--0--0--0-(0)-0--0--0--|
G|----0--0--0--0-(0)-0--0--0--|--0--0--0--0-(0)-0--0--0--|--0--0--0--0-(0)-0--0--0--|
E|----------------------------|--------------------------|--------------------------|


        is news            is    captured
      Emaj7                      A/E
     (Cmaj7)                    (F/C)
e|----7--7--7--7-(7)-7--7-----|--9--9--9--9-(9)-9--9--9--|--9--9--9--9-(9)-9--9--9--|
C|----8--8--8--8-(8)-8--8-----|--9--9--9--9-(9)-9--9--9--|--9--9--9--9-(9)-9--9--9--|
G|----8--8--8--8-(8)-8--8-----|--9--9--9--9-(9)-9--9--9--|--9--9--9--9-(9)-9--9--9--|
C|----0--0--0--0-(0)-0--0-----|--0--0--0--0-(0)-0--0--0--|--0--0--0--0-(0)-0--0--0--|
G|----0--0--0--0-(0)-0--0-----|--0--0--0--0-(0)-0--0--0--|--0--0--0--0-(0)-0--0--0--|
E|----------------------------|--------------------------|--------------------------|

                                                          (Da    da    da    da 
           For    the    Queen        to use               Di-di di-di di-di di-di
                                                            E
                                                           (C)
e|----9--9--9--9--9--9--9--9--|--9--9--9--9--9--9--9-----|--0-----0--0--0--0--0--0--|
C|----9--9--9--9--9--9--9--9--|--9--9--9--9--9--9--9-----|--0-----0--0--0--0--0--0--|
G|----9--9--9--9--9--9--9--9--|--9--9--9--9--9--9--9-----|--0-----0--0--0--0--0--0--|
C|----0--0--0--0--0--0--0--0--|--0--0--0--0--0--0--0-----|--0-----0--0--0--0--0--0--|
G|----0--0--0--0--0--0--0--0--|--0--0--0--0--0--0--0-----|--0-----0--0--0--0--0--0--|
E|----------------------------|--------------------------|--------------------------|

      da    da    da    da da) 
      di-di di-di di-di di-da
      F#m/E                E     Emaj7                E     F#m/E
     (Dm/C)               (C)   (Cmaj7)              (C)   (Dm/C)
e|----5--5--5--5-(5)-5--5--0--|--7--7-----7--7--7--7--7--|--5--5--5--5-(5)-5--5--5--|
C|----6--6--6--6-(6)-6--6--0--|--8--8-----8--8--8--8--8--|--6--6--6--6-(6)-6--6--6--|
G|----6--6--6--6-(6)-6--6--0--|--8--8-----8--8--8--8--8--|--6--6--6--6-(6)-6--6--6--|
C|----0--0--0--6-(0)-0--0--0--|--0--0-----0--0--0--0--0--|--0--0--0--0-(0)-0--0--0--|
G|----0--0--0--0-(0)-0--0--0--|--0--0-----0--0--0--0--0--|--0--0--0--0-(0)-0--0--0--|
E|----------------------------|--------------------------|--------------------------|

    (Don't             surround                   yourself             with yourself)
     Di-di di-di di-di di-di     di-di di-di di-di di-da
      E                          F#m/E                E     Emaj7                E
     (C)                        (Dm/C)               (C)   (Dm/C)               (C)
e|----0--0--0--0-(0)-0--0--0--|--5--5--5--5-(5)-5--5--0--|--7--7--7--7-(7)-7--7--0--|
C|----0--0--0--0-(0)-0--0--0--|--6--6--6--6-(6)-6--6--0--|--8--8--8--8-(8)-8--8--0--|
G|----0--0--0--0-(0)-0--0--0--|--6--6--6--6-(6)-6--6--0--|--8--8--8--8-(8)-8--8--0--|
C|----0--0--0--0-(0)-0--0--0--|--0--0--0--0-(0)-0--0--0--|--0--0--0--0-(0)-0--0--0--|
G|----0--0--0--0-(0)-0--0--0--|--0--0--0--0-(0)-0--0--0--|--0--0--0--0-(0)-0--0--0--|
E|----------------------------|--------------------------|--------------------------|
                               Verse 4
                               (Don't              surround                 yourself)
                                Don't  surround  yourself      with yourself
      F#m/E                      E                          F#m/E                E
     (Dm/C)                     (C)                        (Dm/C)               (C)
e|----5--5--5--5-(5)-5--5--5--|--0--0--0--0--0--0--0--0--|--5--5--5--5-(5)-5--5--0--|
C|----6--6--6--6-(6)-6--6--6--|--0--0--0--0--0--0--0--0--|--6--6--6--6-(6)-6--6--0--|
G|----6--6--6--6-(6)-6--6--6--|--0--0--0--0--0--0--0--0--|--6--6--6--6-(6)-6--6--0--|
C|----0--0--0--0-(0)-0--0--0--|--0--0--0--0--0--0--0--0--|--0--0--0--0-(0)-0--0--0--|
G|----0--0--0--0-(0)-0--0--0--|--0--0--0--0--0--0--0--0--|--0--0--0--0-(0)-0--0--0--|
E|----------------------------|--------------------------|--------------------------|

                                                             (Send            an  in-
       Move on back two squares                               Send an  instant  karma
      Emaj7                      F#m/E                      E
     (Cmaj7)                    (Dm/C)                     (C)
e|----7--7--7--7-(7)-7--7-----|--5--5--5--5-(5)-5--5--5--|--0--0--0--0-(0)-0--0--0--|
C|----8--8--8--8-(8)-8--8-----|--6--6--6--6-(6)-6--6--6--|--0--0--0--0-(0)-0--0--0--|
G|----8--8--8--8-(8)-8--8-----|--6--6--6--6-(6)-6--6--6--|--0--0--0--0-(0)-0--0--0--|
C|----0--0--0--0-(0)-0--0-----|--0--0--0--0-(0)-0--0--0--|--0--0--0--0-(0)-0--0--0--|
G|----0--0--0--0-(0)-0--0-----|--0--0--0--0-(0)-0--0--0--|--0--0--0--0-(0)-0--0--0--|
E|----------------------------|--------------------------|--------------------------|

           -stant                karma           to             me)
            to me                         Initial it             with loving
      F#m/E                E     Emaj7                E     F#m/E
     (Dm/C)               (C)   (Cmaj7)              (C)   (Dm/C)
e|----5--5--5--5-(5)-5--5--0--|--7--7--7--7-(7)-7--7--0--|--5--5--5--5-(5)-5--5--5--|
C|----6--6--6--6-(6)-6--6--0--|--8--8--8--8-(8)-8--8--0--|--6--6--6--6-(6)-6--6--6--|
G|----6--6--6--6-(6)-6--6--0--|--8--8--8--8-(8)-8--8--0--|--6--6--6--6-(6)-6--6--6--|
C|----0--0--0--0-(0)-0--0--0--|--0--0--0--0-(0)-0--0--0--|--0--0--0--0-(0)-0--0--0--|
G|----0--0--0--0-(0)-0--0--0--|--0--0--0--0-(0)-0--0--0--|--0--0--0--0-(0)-0--0--0--|
E|----------------------------|--------------------------|--------------------------|

     (Don't            surround                  yourself)
      care                                       yourself
      E                          F#m/E                E     Emaj7                E
     (C)                        (Dm/C)               (C)   (Cmaj7)              (C)
e|----0--0--0--0-(0)-0--0--0--|--5--5--5--5-(5)-5--5--0--|--7--7--7--7-(7)-7--7--0--|
C|----0--0--0--0-(0)-0--0--0--|--6--6--6--6-(6)-6--6--0--|--8--8--8--8-(8)-8--8--0--|
G|----0--0--0--0-(0)-0--0--0--|--6--6--6--6-(6)-6--6--0--|--8--8--8--8-(8)-8--8--0--|
C|----0--0--0--0-(0)-0--0--0--|--0--0--0--0--0--0--0--0--|--0--0--0--0-(0)-0--0--0--|
G|----0--0--0--0-(0)-0--0--0--|--0--0--0--0--0--0--0--0--|--0--0--0--0-(0)-0--0--0--|
E|----------------------------|--------------------------|--------------------------|

                               'Cause  is time  is time    in time with your time and
      F#m/E                      E                          F#m/E                E
     (Dm/C)                     (C)                        (Dm/C)               (C)
e|----5--5--5--5-(5)-5--5--5--|--0--0--0--0-(0)-0--0--0--|--5--5--5--5-(5)-5--5--0--|
C|----6--6--6--6-(6)-6--6--6--|--0--0--0--0-(0)-0--0--0--|--6--6--6--6-(6)-6--6--0--|
G|----6--6--6--6-(6)-6--6--6--|--0--0--0--0-(0)-0--0--0--|--6--6--6--6-(6)-6--6--0--|
C|----0--0--0--0-(0)-0--0--0--|--0--0--0--0-(0)-0--0--0--|--0--0--0--0-(0)-0--0--0--|
G|----0--0--0--0-(0)-0--0--0--|--0--0--0--0-(0)-0--0--0--|--0--0--0--0-(0)-0--0--0--|
E|----------------------------|--------------------------|--------------------------|


        is news            is    captured
      Emaj7                      A/E
     (Cmaj7)                    (F/C)
e|----7--7--7--7-(7)-7--7-----|--9--9--9--9-(9)-9--9--9--|--9--9--9--9-(9)-9--9--9--|
C|----8--8--8--8-(8)-8--8-----|--9--9--9--9-(9)-9--9--9--|--9--9--9--9-(9)-9--9--9--|
G|----8--8--8--8-(8)-8--8-----|--9--9--9--9-(9)-9--9--9--|--9--9--9--9-(9)-9--9--9--|
C|----0--0--0--0-(0)-0--0-----|--0--0--0--0-(0)-0--0--0--|--0--0--0--0-(0)-0--0--0--|
G|----0--0--0--0-(0)-0--0-----|--0--0--0--0-(0)-0--0--0--|--0--0--0--0-(0)-0--0--0--|
E|----------------------------|--------------------------|--------------------------|
                                                          (Da    da    da    da 
           For    the    Queen        to use               Di-di di-di di-di di-di
                                                            E
                                                           (C)
e|----9--9--9--9--9--9--9--9--|--9--9--9--9--9--9--9-----|--0-----0--0--0--0--0--0--|
C|----9--9--9--9--9--9--9--9--|--9--9--9--9--9--9--9-----|--0-----0--0--0--0--0--0--|
G|----9--9--9--9--9--9--9--9--|--9--9--9--9--9--9--9-----|--0-----0--0--0--0--0--0--|
C|----0--0--0--0--0--0--0--0--|--0--0--0--0--0--0--0-----|--0-----0--0--0--0--0--0--|
G|----0--0--0--0--0--0--0--0--|--0--0--0--0--0--0--0-----|--0-----0--0--0--0--0--0--|
E|----------------------------|--------------------------|--------------------------|

      da    da    da    da da)                             (All      we       are
      di-di di-di di-di di-da
      F#m/E                E     Emaj7                E     F#m/E
     (Dm/C)               (C)   (Cmaj7)              (C)   (Dm/C)
e|----5--5--5--5-(5)-5--5--0--|--7--7-----7--7--7--7--7--|--5--5--5--5-(5)-5--5--5--|
C|----6--6--6--6-(6)-6--6--0--|--8--8-----8--8--8--8--8--|--6--6--6--6-(6)-6--6--6--|
G|----6--6--6--6-(6)-6--6--0--|--8--8-----8--8--8--8--8--|--6--6--6--6-(6)-6--6--6--|
C|----0--0--0--6-(0)-0--0--0--|--0--0-----0--0--0--0--0--|--0--0--0--0-(0)-0--0--0--|
G|----0--0--0--0-(0)-0--0--0--|--0--0-----0--0--0--0--0--|--0--0--0--0-(0)-0--0--0--|
E|----------------------------|--------------------------|--------------------------|

      saying                                                                is
     Di-di di-di di-di di-di     di-di di-di di-di di-da
      E                          F#m/E                E     Emaj7                E
     (C)                        (Dm/C)               (C)   (Cmaj7)              (C)
e|----0--0--0--0-(0)-0--0--0--|--5--5--5--5-(5)-5--5--0--|--7--7--7--7-(7)-7--7--0--|
C|----0--0--0--0-(0)-0--0--0--|--6--6--6--6-(6)-6--6--0--|--8--8--8--8-(8)-8--8--0--|
G|----0--0--0--0-(0)-0--0--0--|--6--6--6--6-(6)-6--6--0--|--8--8--8--8-(8)-8--8--0--|
C|----0--0--0--0-(0)-0--0--0--|--0--0--0--0-(0)-0--0--0--|--0--0--0--0-(0)-0--0--0--|
G|----0--0--0--0-(0)-0--0--0--|--0--0--0--0-(0)-0--0--0--|--0--0--0--0-(0)-0--0--0--|
E|----------------------------|--------------------------|--------------------------|
                               
      give     peace     a      chance)
                                Di-di di-di di-di di-di     di-di di-di di-di di-da
      F#m/E                      E                          F#m/E                E
     (Dm/C)                     (C)                        (Dm/C)               (C)
e|----5--5--5--5-(5)-5--5--5--|--0--0--0--0-(0)-0--0--0--|--5--5--5--5-(5)-5--5--0--|
C|----6--6--6--6-(6)-6--6--6--|--0--0--0--0-(0)-0--0--0--|--6--6--6--6-(6)-6--6--6--|
G|----6--6--6--6-(6)-6--6--6--|--0--0--0--0-(0)-0--0--0--|--6--6--6--6-(6)-6--6--6--|
C|----0--0--0--0-(0)-0--0--0--|--0--0--0--0-(0)-0--0--0--|--0--0--0--0-(0)-0--0--0--|
G|----0--0--0--0-(0)-0--0--0--|--0--0--0--0-(0)-0--0--0--|--0--0--0--0-(0)-0--0--0--|
E|----------------------------|--------------------------|--------------------------|

                                (All      we        are    saying
                                                           Di-di di-di di-di di-di
      Emaj7                E     F#m/E                      E
     (Cmaj7)              (C)   (Dm/C)                     (C)
e|----7--7--7--7-(7)-7--7--0--|--5--5--5--5-(5)-5--5--5--|--0--0--0--0-(0)-0--0--0--|
C|----8--8--8--8-(8)-8--8--0--|--6--6--6--6-(6)-6--6--6--|--0--0--0--0-(0)-0--0--0--|
G|----8--8--8--8-(8)-8--8--0--|--6--6--6--6-(6)-6--6--6--|--0--0--0--0-(0)-0--0--0--|
C|----0--0--0--0-(0)-0--0--0--|--0--0--0--0-(0)-0--0--0--|--0--0--0--0-(0)-0--0--0--|
G|----0--0--0--0-(0)-0--0--0--|--0--0--0--0-(0)-0--0--0--|--0--0--0--0-(0)-0--0--0--|
E|----------------------------|--------------------------|--------------------------|

                                                 is         give     peace     a      
      di-di di-di di-di di-da
      F#m/E                E     Emaj7                E     F#m/E
     (Dm/C)               (C)   (Cmaj7)              (C)   (Dm/C)
e|----5--5--5--5-(5)-5--5--0--|--7--7--7--7-(7)-7--7--0--|--5--5--5--5-(5)-5--5--5--|
C|----6--6--6--6-(6)-6--6--0--|--8--8--8--8-(8)-8--8--0--|--6--6--6--6-(6)-6--6--6--|
G|----6--6--6--6-(6)-6--6--0--|--8--8--8--8-(8)-8--8--0--|--6--6--6--6-(6)-6--6--6--|
C|----0--0--0--0-(0)-0--0--0--|--0--0--0--0-(0)-0--0--0--|--0--0--0--0-(0)-0--0--0--|
G|----0--0--0--0-(0)-0--0--0--|--0--0--0--0-(0)-0--0--0--|--0--0--0--0-(0)-0--0--0--|
E|----------------------------|--------------------------|--------------------------|


      chance)
     'Cause  is time  is time    in time with your time and is news            is    
      E                          F#m/E                      Emaj7                E
     (C)                        (Dm/C)                     (Cmaj7)              (C)
e|----0--0--0--0-(0)-0--0--0--|--5--5--5--5-(5)-5--5--0--|--7--7--7--7-(7)-7--7--0--|
C|----0--0--0--0-(0)-0--0--0--|--6--6--6--6-(6)-6--6--0--|--8--8--8--8-(8)-8--8--0--|
G|----0--0--0--0-(0)-0--0--0--|--6--6--6--6-(6)-6--6--0--|--8--8--8--8-(8)-8--8--0--|
C|----0--0--0--0-(0)-0--0--0--|--0--0--0--0--0--0--0--0--|--0--0--0--0-(0)-0--0--0--|
G|----0--0--0--0-(0)-0--0--0--|--0--0--0--0--0--0--0--0--|--0--0--0--0-(0)-0--0--0--|
E|----------------------------|--------------------------|--------------------------|


      captured
      A/E
     (F/C)
e|----9-----------------------| 
C|----9-----------------------| segue into
G|----9-----------------------| 'All Good People'
C|----0-----------------------|
G|----0-----------------------|
E|----------------------------|






N.C. no chord
/    slide up
\    slide down
h    hammer-on
p    pull-off
mu   mute
pb   pre-bend
co   cut off
pr   partial release
bss  bend slightly sharp
~~   vibrato  


=============================================================================  31 Dec 2015
Добавлено: 30.05.2016
Другие материалы по этой песне:

Страница создана 18.04.2012
http://primanota.ru/yes/ive-seen-all-good-people-your-move-chords.htm
Привет, Гость.
Предлагаем пройти революционный курс по гитаре.
Подарок от PrimaNota.Ru, забирай!