PrimaNota.ru - самый крупный в мире бесплатный архив песенных текстов, аккордов, табулатур и нот


Yes - Does It Really Happen - текст песни, бас-таба, видео

Регистрация Запомнить меня
Войти через:  Facebook Google Twitter Vk Yandex Mail.ru

Yes - Does It Really Happen - текст песни, бас-таба, видео

Печатать
Просмотров: 173
Авторы: Chris Squire, Steve Howe, Trevor Horn, Geoff Downes, Alan White

G||----------------------------------------------|
D||----------------------------------------------|
A||--10h12-12-12-10h12-12-0----0-0-0-10h12-12-12-|
E||----------------------------------------------|


                                           
------------------------------------------|
------------------------------------------|
--10h12-12-0----0----0----0----0----0-0-0-|
------------------------------------------|


                                               
----------------------------------------------|
----------------------------------------------|
--10h12-12-12-10h12-12-0----0-0-0-10h12-12-12-|
----------------------------------------------|


                                              
---------------------------------------------|
---------------------------------------------|
--10h12-12-0----0----0----0----0-10h12-12-12-|
---------------------------------------------|


                                             
--------------------------------------------|
--------------------------------------------|
--10h12-12-0----0----0----0-0-0-10h12-12-12-|
--------------------------------------------|


                                           
------------------------------------------|
------------------------------------------|
--10h12-12-0----0----0----0----0----0-0-0-|
------------------------------------------|


                                               
----------------------------------------------|
----------------------------------------------|
--10h12-12-12-10h12-12-0----0-0-0-10h12-12-12-|
----------------------------------------------|


                                              
---------------------------------------------|
---------------------------------------------|
--10h12-12-0----0----0----0----0-10h12-12-12-|
---------------------------------------------|


                                             
--------------------------------------------|
--------------------------------------------|
--10h12-12-0----0----0----0-0-0-10h12-12-12-|
--------------------------------------------|


                                           
------------------------------------------|
------------------------------------------|
--10h12-12-0----0----0----0----0----0-0-0-|
------------------------------------------|


                                               
----------------------------------------------|
----------------------------------------------|
--10h12-12-12-10h12-12-0----0-0-0-10h12-12-12-|
----------------------------------------------|


                                              
---------------------------------------------|
---------------------------------------------|
--10h12-12-0----0----0----0----0-10-12-12-12-|
---------------------------------------------|


                                             
--------------------------------------------|
--------------------------------------------|
--10h12-12-0----0----0----0-0-0-10h12-12-12-|
--------------------------------------------|


                                           
------------------------------------------|
------------------------------------------|
--10h12-12-0----0----0----0----0----0-0-0-|
------------------------------------------|


                                               
----------------------------------------------|
----------------------------------------------|
--10h12-12-12-10h12-12-0----0-0-0-10h12-12-12-|
----------------------------------------------|


                                              
---------------------------------------------|
---------------------------------------------|
--10h12-12-0----0----0----0----0-10h12-12-12-|
---------------------------------------------|


                                                                            
--------------------------------------------|----------------------1-------|
--------------------------------------------|------------------2-------2---|
--10h12-12-0----0----0----0-0-0-10h12-12-12-|--10h12-12-12-0---------------|
--------------------------------------------|------------------------------|


                                                                            
----------1-------------|-------------------------|----------1-------------|
------2-------2---------|-------0---3---0---------|------2-------2-------2-|
--0-------------------3-|----4--------------4--3--|--0---------------0-----|
------------------3-----|-------------------------|------------------------|


                                                                           
----1------------------|--------------------------|----1---------------1--|
--------2--------------|--0---3---0-------------2-|--------2-------2------|
----------------3---4--|--------------4--3--0-----|------------0----------|
------------3----------|--------------------------|-----------------------|


                                                                              
------------------------|--------------------------|-------------------------|
---2------------0-------|--------------------------|-----0-------------------|
---------------------3--|-----------------5---3--3-|--3--------------1-------|
-------3---3-3----------|--------5---5-5-----------|--------3---3-3-------1--|


                                                                               
-------------------------|--------------------------|-------------------------|
-----------------0-------|--------------------------|-----0-------------------|
----------------------3--|-----------------5---3--3-|--3--------------1-------|
--------3---3-3----------|--------5---5-5-----------|--------3---3-3-------1--|


                                                                          
----------------------|-----------------------|--------------------------|
----------------------|-----0-----------------|-----0-----------0--------|
----------------------|----------3------0---0-|--0------3--3-3-----------|
----------------3---3-|--3--------------------|--------------------3---3-|


                                                                       
---------------------|-----------------------|------------------------|
---------------------|---------------0-------|---------------0--------|
-----1---------------|--------------------3--|------0---0-0------3--3-|
--3-------1----------|------3---3-3----------|------------------------|


                                                                       
-------------------------|--------------------|----------3------0---0-|
-----0-------------------|--------------------|-----3-----------------|
--3--------------1-------|--------------3---3-|--3--------------------|
--------3---3-3-------1--|--------------------|-----------------------|


                                                                        
--0--------------------|-----------------------|-----------------------|
-----4----2------------|----------0----------0-|----4---0-------0---4--|
-----------------0---0-|--0--3-----------------|-----------------------|
-----------------------|-----------------3-----|------------3----------|


                                                                           
-------------------------|------------------------|-----------------------|
---0------------------1--|-----------------0---4--|---0-------0---4---0---|
-----------1---2--3------|---3---2--1-------------|-----------------------|
-------1-----------------|-------------3----------|-------3---------------|


                                                                            
-------------------------|------------------------|------------------------|
-----------------1-------|------------0---4---0---|------0---4---0---------|
------1---2--3-------3---|--2--1------------------|----------------------1-|
--1----------------------|--------3---------------|--3---------------1-----|


                                                                               
---------------------------|------------------------|-------------------------|
-----------1-0-------------|--------------0---------|-------------0-----------|
----2--3--------4--3--2--1-|---0---------------3----|----0---0-0------3--3-3--|
---------------------------|-----3---3-3------------|-------------------------|


                                                                       
------------------------|---------------------|-----------------------|
--0---------------------|---------------------|--0--------------------|
--------------1---------|---------------------|-------3------0---0-0--|
-----3---3-3-------1----|------------3---3-3--|-----------------------|


                                                                        
--------------------------|--------------------|-----------------------|
--0-----------0-----------|--------------------|-------------0---------|
------3--3-3--------------|--1-----------------|------------------3----|
-----------------3---3-3--|-------1------------|----3---3-3------------|


                                                                         
-------------------------|------------------------|---------------------|
-------------0-----------|--0---------------------|---------------------|
----0---0-0------3--3-3--|--------------1---------|------------3---3-3--|
-------------------------|-----3---3-3-------1----|---------------------|


                                                                       
-------3------0---0-0--|-----------------------|----------------------|
--3--------------------|--4----2---------------|-------0----------0---|
-----------------------|--------------0---0-0--|--3-------------------|
-----------------------|-----------------------|--------------3-------|


                                                                            
------------------------|-------------------------|------------------------|
--4---0-------0---4---0-|-------------------1-----|--------------0---4---0-|
------------------------|--------1---2--3-------3-|----2--1----------------|
----------3-------------|----1--------------------|----------3-------------|


                                                                           
-----------------------|-------------------------|------------------------|
--------0---4---0------|--------------1----------|---------0---4---0------|
-----------------------|---1---2--3-------3---2--|--1---------------------|
----3---------------1--|-------------------------|-----3---------------3--|


                                                     
-----------------------|----------------------------|
---0---4---0-----------|---------1-0----------------|
-------------------1---|--2--3--------4--3--2--1--0-|
---------------1-------|----------------------------|


                                               
----------------------------------------------|
----------------------------------------------|
--10h12-12-12-10h12-12-0----0-0-0-10h12-12-12-|
----------------------------------------------|


                                             
--------------------------------------------|
--------------------------------------------|
--10h12-12-0----0----0----0-0-0-10h12-12-12-|
--------------------------------------------|


                                             
--------------------------------------------|
--------------------------------------------|
--10h12-12-0----0----0----0-0-0-10h12-12-12-|
--------------------------------------------|


                                           
------------------------------------------|
------------------------------------------|
--10h12-12-0----0----0----0----0----0-0-0-|
------------------------------------------|


                                               
----------------------------------------------|
----------------------------------------------|
--10h12-12-12-10h12-12-0----0-0-0-10h12-12-12-|
----------------------------------------------|


                                              
---------------------------------------------|
---------------------------------------------|
--10h12-12-0----0----0----0----0-10h12-12-12-|
---------------------------------------------|


                                             
--------------------------------------------|
--------------------------------------------|
--10h12-12-0----0----0----0-0-0-10h12-12-12-|
--------------------------------------------|


                                                       
------------------------------------------------------|
------------------------------------------------------|
--10h12-12-0----0----0----0----0----0-0-0-10h12-12-12-|
------------------------------------------------------|


                                                                                
--------------------------------------------------------------------------------
--------------------------------------------------------------------------------
--10h12-12-0----0-0-0-10h12-12-12-10h12-12-0----0----0----0----0-10h12-12-12-10h
--------------------------------------------------------------------------------


                                                                                
--------------------------------------------------------------------------------
--------------------------------------------------------------------------------
--10h12-12-0----0----0----0----0----0-0-0-10h12-12-12-10h12-12-0----0-0-0-10h12-
--------------------------------------------------------------------------------


                                                                    
-------------------------------------------------------------------|
-------------------------------------------------------------------|
--10h12-12-12-10h12-12-0----0----0----0-0-0-10h12-12-12-10h12-12-0-|
-------------------------------------------------------------------|


                                                                      
----------------------|-----------------------|----------------------|
----------------------|-----------------------|----------------------|
-----0----0----0----0-|-----0-0-0-10h12-12-12-|--10h12-12-0----0-0-0-|
----------------------|-----------------------|----------------------|


                                                                           
-------------------------|----------------------|-------------------------|
-------------------------|----------------------|-------------------------|
--10h12-12-12-10h12-12-0-|-----0----0----0----0-|--10h12-12-12-10h12-12-0-|
-------------------------|----------------------|-------------------------|


                                                                       
---------------------|-------------------------|----------------------|
---------------------|-------------------------|----------------------|
-----0----0----0-0-0-|--10h12-12-12-10h12-12-0-|-----0----0----0----0-|
---------------------|-------------------------|----------------------|


                                                                         
-----------------------|----------------------|-------------------------|
-----------------------|----------------------|-------------------------|
-----0-0-0-10h12-12-12-|--10h12-12-0----0-0-0-|--10h12-12-12-10h12-12-0-|
-----------------------|----------------------|-------------------------|


                                                                       
----------------------|-------------------------|---------------------|
----------------------|-------------------------|---------------------|
-----0----0----0----0-|--10h12-12-12-10h12-12-0-|-----0----0----0-0-0-|
----------------------|-------------------------|---------------------|


                                                                         
-------------------------|----------------------|-----------------------|
-------------------------|----------------------|-----------------------|
--10h12-12-12-10h12-12-0-|-----0----0----0----0-|-----0-0-0-10h12-12-12-|
-------------------------|----------------------|-----------------------|


                                                                        
----------------------|-------------------------|----------------------|
----------------------|-------------------------|----------------------|
--10h12-12-0----0-0-0-|--10h12-12-12-10h12-12-0-|-----0----0----0----0-|
----------------------|-------------------------|----------------------|


                                                                           
-------------------------|---------------------|--------------------------|
-------------------------|---------------------|--------------------------|
--10h12-12-12-10h12-12-0-|-----0----0----0-0-0-|--10h12-12-12-10h12-12-12-|
-------------------------|---------------------|--------------------------|


                                                                      
----------1--|-------------|----1-------|-------------|--------------|
------2------|---2-------2-|--------2---|-------------|--0---3---0---|
--0----------|-------0-----|------------|------3---4--|--------------|
-------------|-------------|------------|--3----------|--------------|


                                                        
--------------|----1-------|----------1--|-------------|
------------2-|--------2---|------2------|---2---------|
--4--3--0-----|------------|--0----------|-----------3-|
--------------|------------|-------------|-------3-----|


                                                                
---------------------------------1---------------1---0---------|
-------0---3---0-------------2-------2-------2-----------4---2-|
----4--------------4--3--0---------------0---------------------|
---------------------------------------------------------------|


                                                       
------------------------------------------------------|
----1-------------------------------------------------|
--------4---3---3---2---1---0-------------------------|
-------------------------------3----------------------|


                                                                       
------------------------------------------------|----------|----------|
------------------------------------------------|----------|----------|
------------------------------------------------|----------|----------|
------------------------------------------------|----------|----------|


                                                                               
----------|----------|----------|----------|----------|----------|------------|
----------|----------|----------|----------|----------|----------|---------0--|
----------|----------|----------|----------|----------|----------|------------|
----------|----------|----------|----------|----------|----------|--3---------|


                                                                     
---------------|-----------|----------|--------------|--------------|
---------0-1-2-|--2--------|----------|--------------|--------------|
----3----------|--0--------|----------|--------------|--------------|
---------------|-----------|----------|--3-----3-----|--3-----3-----|


                                                                           
--------------|--------------|--------------|--------------|--------------|
--------------|--------------|--------------|--------------|--------------|
--------------|--------------|--------------|--------------|--------------|
--3-----3-----|--3-----3-----|--3-----3-----|--3-----3-----|--3-----3-----|


                                                                           
--------------|--------------|--------------|--------------|--------------|
--------------|--------------|--------------|--------------|--------------|
--------------|--------------|--------------|--------------|--------------|
--3-----3-----|--3-----3-----|--3-----3-----|--3-----3-----|--3-----3-----|


                                             
--------------|--------------|--------------|
--------------|--------------|--------------|
--------------|--------------|--------------|
--3-----3-----|--3-----3-----|--3-----3-----|


                                                                     
--------------------------------------------------------------------|
--------------------------------------------------------------------|
--------------------------------------------------------------------|
--3-----3-----3-----3-----3-----3-----3-----3-----3-----3-----3-----|


                                                              
------------------------------------------3------0---0-0-----|
-------------------------------------3--------------------4--|
----------------------------3---3-3--------------------------|
--3-----3-----3----------------------------------------------|


                                                                  
-----------------------------------------------------------------|
----2--------------------0---------------------------------------|
-----------0---0-0--3--------------------------------------------|
--------------------------------3-----3-----3-----3-----3-----3--|


                                                               
--------------------------|-----------------------------------|
--------------------------|-----------------------------------|
--------------------------|-----------------------------------|
-----3-----3-----3-----3--|-----3-----3---------0--3----0--3--|


                                                                            
------------------|------------------|------------------|------------------|
------------------|------------------|------------------|------------------|
------------------|------------------|------------------|------------------|
------------------|------------------|------------------|------------------|


                                                                            
------------------|------------------|------------------|------------------|
------------------|------------------|------------------|------------------|
------------------|------------------|------------------|------------------|
------------------|------------------|------------------|------------------|


                                                             
------------------|-------------------------0---------------|
------------------|-----------------------------2--0--------|
------------------|----10h12-12-12-10h12-12-----------3--0--|
------------------|-----------------------------------------|


                                                          
--------------------------|------------------------0--2--|
--------------------------|---------------0-----2--------|
------------0----0------0-|----0----0--3-----------------|
---------3-----------3----|------------------------------|


                                                                               
--5--2----2--2--0--2--2--0--2--2--0-----|--0-------0-----5--2-----0-----0--2--|
-------------------------------------2--|-------2-----2--------2-----2--------|
----------------------------------------|-------------------------------------|
----------------------------------------|-------------------------------------|


                                                                           
--5--2--5--7---9---12---14-|-----17---14--16------14--12----------12------|
---------------------------|------------------17----------14--14------14--|
---------------------------|----------------------------------------------|
---------------------------|----------------------------------------------|


                                                   
------------12------------------------12--12--14--|
----12--14------14--12--10------------------------|
----------------------------12--12----------------|
--------------------------------------------------|


                                                  
--14-14-14---14---14--14-14-14--12--12--9--12--9-|
-------------------------------------------------|
-------------------------------------------------|
-------------------------------------------------|


                                                                              
--------7--9--12--9--7--5--5--2----|------5--9--12--9--12--17----14--12------|
-----------------------------------|-------------------------------------14--|
-----------------------------------|-----------------------------------------|
-----------------------------------|-----------------------------------------|


                                             
------7--9--12--9--7--7--7--5---2--2--2--0--|
--------------------------------------------|
--------------------------------------------|
--------------------------------------------|


                                             
--------------------------------------------|
--------------------------------------------|
--12--10h12-12-12-10h12-12-0----0-0-0-10h12-|
--------------------------------------------|


                                              
---------------------------------------------|
---------------------------------------------|
--12-12-10h12-12-0----0----0----0----0-10h12-|
---------------------------------------------|


                                             
--------------------------------------------|
--------------------------------------------|
--12-12-10h12-12-0----0----0----0-0-0-10h12-|
--------------------------------------------|


                                                    
---------------------------------------------------|
---------------------------------------------------|
--12-12-10h12-12-0----0----0----0----0----0-0-0----|
------------------------------------------------0--|


                                                                        
-----------------------------------------------------------------------|
-----------------------------------------------------------------0-0h2-|
-----0--3-----0--------------0--3-----0--------------0--3----0-3-------|
--3--------------3--0--0--3--------------3--0--0--3--------------------|


                                                                                
--0---0h2-2-2-2h5-5-5-5h7-7-7h9-9-9-9-------------------------------------------
----2---------------------------------------------------------------------------
--------------------------------------10h12-12-12-10h12-12-0----0-0-0-10h12-12-1
--------------------------------------------------------------------------------


                                                                                
--------------------------------------------------------------------------------
--------------------------------------------------------------------------------
-----0-10h12-12-12-10h12-12-0----0----0----0-0-0-10h12-12-12-10h12-12-0----0----
--------------------------------------------------------------------------------


                                                                                
--------------------------------------------------------------------------------
--------------------------------------------------------------------------------
--10h12-12-12-10h12-12-0----0----0----0----0-10h12-12-12-10h12-12-0----0----0---
--------------------------------------------------------------------------------


                                                                                
--------------------------------------------------------------------------------
--------------------------------------------------------------------------------
-----0----0----0-0-0-10h12-12-12-10h12-12-0----0-0-0-10h12-12-12-10h12-12-0----0
--------------------------------------------------------------------------------


                                                                                
--------------------------------------------------------------------------------
--------------------------------------------------------------------------------
-----0----0----0-0-0-10h12-12-12-10h12-12-0----0----0----0----0----0-0-0-10h12-1
--------------------------------------------------------------------------------


                                                                         
-----------------------|------------------------|-----------------------|
-----------------------|------------------------|-----------------------|
--10h12-12-0----0----0-|-----0----0-10h12-12-12-|--10h12-12-0----0----0-|
-----------------------|------------------------|-----------------------|


                                                                      
-----------------------|-----------------------|---------------------|
-----------------------|-----------------------|---------------------|
-----0-0-0-10h12-12-12-|--10h12-12-0----0----0-|-----0----0----0-0-0-|
-----------------------|-----------------------|---------------------|


                                                                       
-------------------------|----------|-----------|----------|----------|
-------------------------|----------|-----------|----------|----------|
--10h12-12-12-10h12-12-0-|----------|-----------|----------|----------|
-------------------------|----------|---------1-|----------|----------|


                                                                              
----------|-----------|----------|----------|----------|----------|----------|
----------|-----------|----------|----------|----------|----------|----------|
----------|---------0-|----------|----------|----------|----------|----------|
----------|-----------|----------|----------|----------|----------|----------|


                                             
----------|----------|----------|----------||
----------|----------|----------|----------||
----------|----------|----------|----------||
----------|----------|----------|----------||

Добавлено: 10.07.2015
Другие материалы по этой песне:
  • Аккорды и текст

Страница создана 27.04.2012
http://primanota.ru/yes/does-it-really-happen--chords.htm
Привет, Гость.
Предлагаем пройти революционный курс по гитаре.
Подарок от PrimaNota.Ru, забирай!