PrimaNota.ru - самый крупный в мире бесплатный архив песенных текстов, аккордов, табулатур и нот


Yes - Amazing Grace - бас-таба, видео

Регистрация Запомнить меня
Войти через:  Facebook Google Twitter Vk Yandex Mail.ru

Yes - Amazing Grace - бас-таба, видео

Печатать
Просмотров: 125
Авторы музыки: [traditional]

H H  H H      q     h   e   e   e      h   e   e      h   q     h
-----------|-----|------------------|--------------|---------|--------|
-----------|--7--|--12--16--14--12--|--16--16--14--|--12--9--|--7-----|
4/17\4/17--|-----|------------------|--------------|---------|--------|
-----------|-----|------------------|--------------|---------|--------|


q     Q   e   e   e   e      h   e   e      h   E      h   E
---|----------------------|--------------|------16--|--18------|------|
7--|--12--12--16--14--12--|--16--14--16--|--19------|------16--|------|
---|----------------------|--------------|----------|----------|------|
---|----------------------|--------------|----------|----------|------|


E   e   E   E   E      h   e   e      h   q     q  E  q     Q   e
--------------------|--------------|---------|-----------|------------|
19--19--16--14--12--|--16--16--14--|--12--9--|--7--7--7--|--12--12----|
--------------------|--------------|---------|-----------|------------|
--------------------|--------------|---------|-----------|------------|


E   E   E      h   E   H      H  H
------------|--------------|-----19--||-------------------------------|
16--14--12--|--16--14--12--|---------||-------------------------------|
------------|--------------|--4------||-------------------------------|
------------|--------------|---------||-------------------------------|
Добавлено: 01.08.2013
Другие материалы по этой песне:
  • Аккорды и текст

Страница создана 01.08.2013
http://primanota.ru/yes/amazing-grace-chords.htm
Привет, Гость.
Предлагаем пройти революционный курс по гитаре.
Подарок от PrimaNota.Ru, забирай!