PrimaNota.ru - самый крупный в мире бесплатный архив песенных текстов, аккордов, табулатур и нот


Yellowcard - One For The Kids - таба, видео

Регистрация Запомнить меня
Войти через:  Facebook Google Twitter Vk Yandex Mail.ru

Yellowcard - One For The Kids - таба, видео

Печатать
Просмотров: 100
This is a compilation of tabs from Ultimate Guitar, since there was no album tab and 
wanted to play this as a full album

for ages.

~ - let ring out
* - harmonic
... - palm mute
/ \ - slide
h - hammer on
p - pull off

5x
5x - mute after strumming
5x

-----------------------------------------------------------------
1. Star Struck
-----------------------------------------------------------------
Drop D Tuning

INTRO (listen to song for timings)
 Guitar 1 (x7)
e:------------------|--------------------------------------------|
B:-3-------4-----3--|--4h6p4-3-4-3---3-----------3-------4-----3-|
G:---3-5-3---3-5----|--------------5---------------3-5-3---3-5---|
D:------------------|--------------------------------------------|
A:------------------|--------------------------------------------|
D:------------------|--------------------------------------------|
pm   .   .   .

 Guitar 2 (come in on 6x)
e:---------------------------------------------------------------|
B:---------1-----------1h3p1---1---------------------------------|
G:-3-3-2-3---3-2-3-----------3---3-2-3---------------------------|
D:---------------------------------------------------------------|
A:---------------------------------------------------------------|
D:---------------------------------------------------------------|

 Guitar 3 (come in on 4x)
e:---------------------------------------------------------------|
B:---------------------------------------------------------------|
G:---------------------------------------------------------------|
D:---------------------------------------------------------------|
A:-1-1-1-1-1-1-1-1-5-5-5-5-5-5-5-5-1-1-1-1-1-1-1-1-5-5-----------|
D:-1-1-1-1-1-1-1-1-5-5-5-5-5-5-5-5-1-1-1-1-1-1-1-1-5-5-----------|

VERSE "Where is your inspiration..."
 Guitar 1 (x2)
e:----------------------------------------------------------------|
B:----------------------------------------------------------------|
G:3---3---5---3---2---2---3---3---3---3---3---3---0---0---2---2---|
D:--5---5---5---5---4---4---5---5---5---5---3---3---1---1---3---3-|
A:----------------------------------------------------------------|
D:----------------------------------------------------------------|

 Guitar 1 (x2)
e:----------------------------------------------------------------|
B:----------------------------------------------------------------|
G:3---3---5---3---2---2---3---3---3---3---3---3---0---0---2---2---|
D:--5---5---5---5---4---4---5---5---5---5---3---3---1---1---3---3-|
A:----------------------------------------------------------------|
D:----------------------------------------------------------------|

 Guitar 2 (x2)
e:---------------------------------------------------------------|
B:---------------------------------------------------------------|
G:---------------------------------------------------------------|
D:---------------------------------------------------------------|
A:5-5x------------5-5x----5-5x----1-1x------------1-1x----3-3x---|
D:5-5x------------4-4x----5-5x----1-1x------------1-1x----3-3x---|

CHORUS "But I grew up, wishing on a star..."
 Guitar 1
e:---------------------------------------------------------------|
B:---------------------------------------------------------------|
G:7-7-7-8-8-8-10-10-7-7-7-8-8-8-10-10----------------------------|
D:---------------------------------------------------------------|
A:5-5-5-6-6-6--8--8-5-5-5-6-6-6--8--8----------------------------|
D:---------------------------------------------------------------|

 Guitar 2
e:----------------------------------------------------------------|
B:----------------------------------------------------------------|
G:3-3-3-3-3-3-3-3-2-2-2-2-2-2-2-2---------------------------------|
D:3-3-3-3-3-3-3-3-3-3-3-3-3-3-3-3---------------------------------|
A:1-1-1-1-1-1-1-1-0-0-0-0-0-0-0-0-5-5-5-5-5-5-5-5-1-1-1-1-1-1-1-1-|
D:--------------------------------5-5-5-5-5-5-5-5-1-1-1-1-1-1-1-1-|

 Guitar 1
e:---------------------------------------------------------------|
B:---------------------------------------------------------------|
G:---------------------------------------------------------------|
D:--------0---1--------------------------------------------------|
A:1---3-----------3----------------------------------------------|
D:---------------------------------------------------------------|

 Guitar 2
e:----------------------------------------------------------------|
B:----------------------------------------------------------------|
G:3-3-3-3-3-3-3-3-------------------------------------------------|
D:3-3-3-3-3-3-3-3-------------------------------------------------|
A:1-1-1-1-1-1-1-1-3-3-3-3-3-3-3-3-5-5-5-5-5-5-5-5-1-1-1-1-1-1-1-1-|
D:----------------3-3-3-3-3-3-3-3-5-5-5-5-5-5-5-5-1-1-1-1-1-1-1-1-|

 POST-CHORUS
e:---------------------------------------------------------------|
B:---------------------------------------------------------------|
G:3-3-3-3-3-3-3-3------------------------------------------------|
D:3-3-3-3-3-3-3-3------------------------------------------------|
A:1-1-1-1-1-1-1-1-3-3-3-3-3-3-3-3--------------------------------|
D:----------------3-3-3-3-3-3-3-3--------------------------------|

 Guitar 1
e:---------------------------------------------------------------|
B:---------------------------------------------------------------|
G:-3--3--3-3-3--3--3--3-3-3--2--2--2-2-2--2--2--2-2-2------------|
D:-3--3--3-3-3--3--3--3-3-3--3--3--3-3-3--3--3--3-3-3------------|
A:-1--1--1-1-1--1--1--1-1-1--0--0--0-0-0--0--0--0-0-0------------|
D:---------------------------------------------------------------|
pm...    ...   ..     ...   ..     ...   ..     ...

e:---------------------------------------------------------------|
B:-----------1-----3------4------------------1------3------------|
G:----3-------------------------2------3-------------------------|
D:---------------------------------------------------------------|
A:---------------------------------------------------------------|
D:---------------------------------------------------------------|

  VERSE again "So high on dedication..."
 Guitar 1
e:---------------------------------------------------------------|
B:---------------------------------------------------------------|
G:-------------2---2---3---3---3---3---3---3---0---0---2---2-----|
D:------*--0-----4---4---5---5---5---5---3---3---1---1---3---3---|
A:-5-5--5--------------------------------------------------------|
D:-5-5-----------------------------------------------------------|
             pm.................................................
 Guitar 2
e:---------------------------------------------------------------|
B:---------------------------------------------------------------|
G:---------------------------------------------------------------|
D:---------------------------------------------------------------|
A:-------------5-5-5-5-5-5-5-5-1-1-1-1-1-1-1-1-1-1-1-1-3-3-3-3---|
D:-------------4-4-4-4-5-5-5-5-1-1-1-1-1-1-1-1-1-1-1-1-3-3-3-3---|
             pm..................................................

 Guitar 1 (x3)
e:----------------------------------------------------------------|
B:----------------------------------------------------------------|
G:3---3---5---3---2---2---3---3---3---3---3---3---0---0---2---2---|
D:--5---5---5---5---4---4---5---5---5---5---3---3---1---1---3---3-|
A:----------------------------------------------------------------|
D:----------------------------------------------------------------|
pm...............................................................

 Guitar 2 (x3)
e:----------------------------------------------------------------|
B:----------------------------------------------------------------|
G:----------------------------------------------------------------|
D:----------------------------------------------------------------|
A:5-5-5-5-5-5-5-5-5-5-5-5-5-5-5-5-1-1-1-1-1-1-1-1-1-1-1-1-3-3-3-3-|
D:5-5-5-5-5-5-5-5-4-4-4-4-5-5-5-5-1-1-1-1-1-1-1-1-1-1-1-1-3-3-3-3-|

  REPEAT CHORUS x1 "But I grew up, wishing on a star..."

2ND CHORUS CONTINUED
Guitar 1
e:---------------------------------------------------------------|
B:---------------------------------------------------------------|
G:---------------------------------------------------------------|
D:--------0---1--------------------------------------------------|
A:1---3-----------3----------------------------------------------|
D:---------------------------------------------------------------|

 Guitar 2
e:----------------------------------------------------------------|
B:----------------------------------------------------------------|
G:3-3-3-3-3-3-3-3-2-2-2-2-2x--2-----------------------------------|
D:3-3-3-3-3-3-3-3-3-3-3-3-3x--3-----------------------------------|
A:1-1-1-1-1-1-1-1-0-0-0-0-0x--0---5-5-5-5-5-5-5-5-1-1-1-1-1-1-1-1-|
D:--------------------------------5-5-5-5-5-5-5-5-1-1-1-1-1-1-1-1-|

 Guitar 1
e:---------------------------------------------------------------|
B:---------------------------------------------------------------|
G:---------------------------------------------------------------|
D:--------0---1--------------------------------------------------|
A:1---3-----------3----------------------------------------------|
D:---------------------------------------------------------------|

 Guitar 2
e:----------------------------------------------------------------|
B:----------------------------------------------------------------|
G:3-3-3-3-3-3-3-3-------------------------------------------------|
D:3-3-3-3-3-3-3-3-------------------------------------------------|
A:1-1-1-1-1-1-1-1-3-3-3-3-3-3-3-3-5-5-5-5-5-5-5-5-1-1-1-1-1-1-1-1-|
D:----------------3-3-3-3-3-3-3-3-5-5-5-5-5-5-5-5-1-1-1-1-1-1-1-1-|

 2ND POST-CHORUS
e:---------------------------------------------------------------|
B:---------------------------------------------------------------|
G:3-3-3-3-3-3-3-3-2-2-2-2-2-2-2-2--------------------------------|
D:3-3-3-3-3-3-3-3-3-3-3-3-3-3-3-3--------------------------------|
A:1-1-1-1-1-1-1-1-0-0-0-0-0-0-0-0-1-1---1-1-1---1-1-1---1-1-1----|
D:--------------------------------1-1---1-1-1---1-1-1---1-1-1----|
                               pm...    ...     ...     ...
e:---------------------------------------------------------------|
B:---------------------------------------------------------------|
G:---------------------------------------------------------------|
D:---------------------------------------------------------------|
A:-1-3-3---3-3-3---3-3-3---3-3-3---3-----------------------------|
D:-1-3-3---3-3-3---3-3-3---3-3-3---3-----------------------------|
pm....     ...     ...     ...    ..

INTERLUDE
Guitar 1 (x5)
e:------------------|-------------------|------------------------|
B:-3-------4-----3--|--4h6p4-3-4-3---3--|--3-------4-----3-------|
G:---3-5-3---3-5----|--------------5----|----3-5-3---3-5---------|
D:------------------|-------------------|------------------------|
A:------------------|-------------------|------(x8)--------------|
D:------------------|-------------------|------------------------|
pm   .   .   .                               .   .   .

 Guitar 2 (come in on x5)
e:---------------------------------------------------------------|
B:---------1-----------1h3p1---1---------------------------------|
G:-3-3-2-3---3-2-3-----------3---3-2-3---------------------------|
D:---------------------------------------------------------------|
A:---------------------------------------------------------------|
D:---------------------------------------------------------------|

 Guitar 3 (come in on x3)
e:----------------------------------------------------------------|
B:----------------------------------------------------------------|
G:----------------------------------------------------------------|
D:----------------------------------------------------------------|
A:1-1-1-1-1-1-1-1-1-1-1-1-1-1-1-1-5-5-5-5-5-5-5-5-5-5-5-5-5-5-5-5-|
D:1-1-1-1-1-1-1-1-1-1-1-1-1-1-1-1-5-5-5-5-5-5-5-5-5-5-5-5-5-5-5-5-|

 Guitar 3
e:----------------------------------------------------------------|
B:----------------------------------------------------------------|
G:--------------------------------3-3-3-3-3-3-3-3-3-3-3-3-3-3-3-3-|
D:--------------------------------3-3-3-3-3-3-3-3-3-3-3-3-3-3-3-3-|
A:1-1-1-1-1-1-1-1-1-1-1-1-1-1-1-1-1-1-1-1-1-1-1-1-1-1-1-1-1-1-1-1-|
D:1-1-1-1-1-1-1-1-1-1-1-1-1-1-1-1---------------------------------|

 Guitar 3
e:----------------------------------------------------------------|
B:----------------------------------------------------------------|
G:----------------------------------------------------------------|
D:----------------------------------------------------------------|
A:1-1-1-1-1-1-1-1-1-1-1-1-1-1-1-1-5-5-5-5-5-5-5-5-5-5-5-5-5-5-5-5-|
D:1-1-1-1-1-1-1-1-1-1-1-1-1-1-1-1-5-5-5-5-5-5-5-5-5-5-5-5-5-5-5-5-|

 repeat CHORUS
 repeat 2ND CHORUS
 repeat 1ST POST-CHORUS

 END "Where is your inspiration..."
e:---------------------------------------------------------------|
B:---------------------------------------------------------------|
G:---------------------------------------------------------------|
D:---------------------------------------------------------------|
A:5-5x------------5-5x----5-5x----1-1x------------1-1x----3-3x---|
D:5-5x------------4-4x----5-5x----1-1x------------1-1x----3-3x---|

----------------------------------------------------------------------
2. Drifting

----------------------------------------------------------------------

Drop D Tuning

----------------
 GUITAR 1 PARTS
----------------

INTRO
  "When I look into your eyes..."
e|-------------------------------------------------------------------|
B|--------------------2---2--2--3-3--2--2-2-2------------------------|
G|-------7--7--6--6---4---4--4--4-4--4--4-4-4--7-7-7--7--7-7-7-7-----|
D|--------------------4---4--4--4-4--4--4-4-4--7-7-7--7--7-7-7-7-----|
A|-0--0--5--5--4--4---2---2--2--2-2--2--2-2-2--5-5-5--5--5-5-5-5-----|
D|-0--0----------------------------------------5-5-5--5--5-5-5-5-----|
                                               pm.       .......
e|-------------------------------------------------------------------|
B|-------------------------------------------------------------------|
G|--7/9\7---7-7-7-7-7--7--7-7---7\6-6-6\4-4-4\2---------7--7--6--6---|
D|----------7-7-7-7-7--7--7-7----------------------------------------|
A|--5/7\5---5-5-5-5-5--5--5-5---5\4-4-4\2-2-2\0---0--0--5--5--4--4---|
D|----------5-5-5-5-5--5--5-5---------------------0--0---------------|
            pm.....       ....
e|-------------------------------------------------------------------|
B|----2---2--2--3-3--2--2-2-2----------------------------------------|
G|----4---4--4--4-4--4--4-4-4--7-7-7x----7-7-7x----7-7-7--7-7-7x-----|
D|----4---4--4--4-4--4--4-4-4--7-7-7x----7-7-7x----7-7-7--7-7-7x-----|
A|----2---2--2--2-2--2--2-2-2--5-5-5x----5-5-5x----5-5-5--5-5-5x-----|
D|-----------------------------5-5-5x----5-5-5x----5-5-5--5-5-5x-----|

e|-------------------------------------------------------------------|
B|-----------------------------------2---2--2--3-3--2--2-2-2---------|
G|-7-7-7x---------------7--7--6--6---4---4--4--4-4--4--4-4-4--7-7-7--|
D|-7-7-7x----5h7---------------------4---4--4--4-4--4--4-4-4--7-7-7--|
A|-5-5-5x---------0--0--5--5--4--4---2---2--2--2-2--2--2-2-2--5-5-5--|
D|-5-5-5x---------0--0----------------------------------------5-5-5--|
                                                              pm.
e|-------------------------------------------------------------------|
B|-------------------------------------------------------------------|
G|-7--7-7-7-7---7/9\7---7-7-7-7-7--7--7-7--7\6-6-6\4-4-4\2-----------|
D|-7--7-7-7-7-----------7-7-7-7-7--7--7-7----------------------------|
A|-5--5-5-5-5---5/7\5---5-5-5-5-5--5--5-5--5\4-4-4\2-2-2\0---0--0----|
D|-5--5-5-5-5-----------5-5-5-5-5--5--5-5--------------------0--0----|
      pm.....           .......       ...
e|-------------------------------------------------------------------|
B|--------------2---2--2--3-3--2--2-2-2------------------------------|
G|-7--7--6--6---4---4--4--4-4--4--4-4-4--7-7-7x----7-7-7x----7-7-7---|
D|--------------4---4--4--4-4--4--4-4-4--7-7-7x----7-7-7x----7-7-7---|
A|-5--5--4--4---2---2--2--2-2--2--2-2-2--5-5-5x----5-5-5x----5-5-5---|
D|---------------------------------------5-5-5x----5-5-5x----5-5-5---|

e|-------------------------------------------------------------------|
B|-------------------------------------------------------------------|
G|-6-6-6x---6-6-6x---------------------------------------------------|
D|-7-7-7x---7-7-7x---------------------------------------------------|
A|-4-4-4x---4-4-4x---------------------------------------------------|
D|-------------------------------------------------------------------|


VERSE
   "I don't know you anymore..."
e|-------------------------------------------------------------------|
B|-------------------------------------------------------------------|
G|---------------------------------2-2-2-2-2-2-4-4-4-4-4-4-4-4-4-4---|
D|-4-4-4-4-4-4-6-6-6-6-6-6-6-6-6-6-----------------------------------|
A|-------------------------------------------------------------------|
D|-------------------------------------------------------------------|
   pm.............................................(slowly release)
e|-------------------------------------------------------------------|
B|-------------------------------------------------------------------|
G|-2-2-2-2-2-2-2-2-2-2-2-2-2-2-2-2-6-6-6-6x-----7~-------------------|
D|-2-2-2-2-2-2-2-2-2-2-2-2-2-2-2-2-7-7-7-7x-----7~-------------------|
A|-0-0-0-0-0-0-0-0-0-0-0-0-0-0-0-0-4-4-4-4x-----5~-------------------|
D|-------------------------------------------------------------------|

e|-------------------------------------------------------------------|
B|-------------------------------------------------------------------|
G|-------------------------------------------------------------------|
D|-4-4-4-4-4-4-6-6-6-6-6-6-6-6-6-6-4-4-4-4-4-4-2-2-2-2-2-2-2-2-2-2---|
A|-------------------------------------------------------------------|
D|-------------------------------------------------------------------|
   pm.............................................(slowly release)

e|-------------------------------------------------------------------|
B|-------------------------------------------------------------------|
G|-2-2-2-2-2-2-2-2-2-2-2-2-2-2-2-2-6-6-6-6x-----7~-------------------|
D|-2-2-2-2-2-2-2-2-2-2-2-2-2-2-2-2-7-7-7-7x-----7~-------------------|
A|-0-0-0-0-0-0-0-0-0-0-0-0-0-0-0-0-4-4-4-4x-----5~-------------------|
D|-------------------------------------------------------------------|


BRAND NEW SONG (x2)
   "Start a brand new song..."
e|-------------------------------------------------------------------|
B|-------------------------------------------------------------------|
G|-7-7-7-----------------------------------------------4-4--4--4-4-4-|
D|-7-7-7-----------------------------------------------4-4--4--4-4-4-|
A|-5-5-5--4---5-5--5--5-5-5--2-2-2--4---5-5--5--5-5-5--2-2--2--2-2-2-|
D|--------4---5-5--5--5-5-5--2-2-2--4---5-5--5--5-5-5----------------|

e|----------------|-------------------|------------------------------|
B|----------------|--(first-time)-----|------(second-time)-----------|
G|-2-2--2--2-2-2--|-------------------|------------------------------|
D|-2-2--2--2-2-2--|-------------------|------------------------------|
A|-0-0--0--0-0-0--|--5--5--5--5--5-5--|-5-5--5--5-5-5-5-5--5-5-5-5-5-|
D|----------------|--5--5--5--5--5-5--|-5-5--5--5-5-5-5-5--5-5-5-5-5-|
                                                             pm.....

VIOLIN PART
   "If once, you could only understand..."
e|-------------------------------------------------------------------|
B|-------------------------------------------------------------------|
G|-------------------------------------------------------------------|
D|------------------------4~--2~--0~---------------------------------|
A|--2~----0~--------0~-------------------2~----0~--------------------|
D|------------5~-----------------------------------5~----------------|

e|-------------------------------------------------------------------|
B|-------------------------------------------------------------------|
G|-2-2-2-2-2-2-2-2-2-2-2-2-2-2-2-2-----------------------------------|
D|-2-2-2-2-2-2-2-2-2-2-2-2-2-2-2-2-----------------------------------|
A|-0-0-0-0-0-0-0-0-0-0-0-0-0-0-0-0-5x--------------------------------|
D|---------------------------------5x--------------------------------|
     pm...........................


FAST PART (x2)
   "You were young like me..."
e|-------------------------------------------------------------------|
B|-------------------------------------------------------------------|
G|-7--7--7--7--7-7-7-7--7--7--7--7--7-7-7-7--5--5--5--5--5-5-5-5-----|
D|-7--7--7--7--7-7-7-7--7--7--7--7--7-7-7-7--5--5--5--5--5-5-5-5-----|
A|-5--5--5--5--5-5-5-5--5--5--5--5--5-5-5-5--3--3--3--3--3-3-3-3-----|
D|-------------------------------------------------------------------|
            pm........           ..........           ..........
e|-------------------------------------------------------------------|
B|-------------------------------------------------------------------|
G|-5--5--5--5--5-5-5-5--7--7--7--7--7-7-7-7------------2-2-2-2-2-2-2-|
D|-5--5--5--5--5-5-5-5--7--7--7--7--7-7-7-7------------2-2-2-2-2-2-2-|
A|-3--3--3--3--3-3-3-3--5--5--5--5--5-5-5-5--5-7-5-4-2-0-0-0-0-0-0-0-|
D|-------------------------------------------------------------------|
            pm........           ..........            ...   .....
e|-------------------------------------------------------------------|
B|-------------------------------------------------------------------|
G|-2-4-4-4-2-2-2-2---------------------------------------------------|
D|-2-4-4-4-2-2-2-2---------------------------------------------------|
A|-0-2-2-2-0-0-0-0---------------------------------------------------|
D|-------------------------------------------------------------------|
   pm.     ...


NEXT FAST PART
   "And now it's time, you took something back...."
e|-------------------------------------------------------------------|
B|-------------------------------------------------------------------|
G|-------------------------------------------------------------------|
D|-------------------------------------------------------------------|
A|-5--5--5--5--5-5-5-5--5--5--5--5--5-5-5-5--5--5--5--5--5-5-5-5-----|
D|-5--5--5--5--5-5-5-5--5--5--5--5--5-5-5-5--5--5--5--5--5-5-5-5-----|

e|-------------------------------------------------------------------|
B|-------------------------------------------------------------------|
G|----------------------4--4--4--4--4-4-4-4--2--2--2--2--2-2-2-2-----|
D|----------------------4--4--4--4--4-4-4-4--2--2--2--2--2-2-2-2-----|
A|-5--5--5--5--5-5-5-5--2--2--2--2--2-2-2-2--0--0--0--0--0-0-0-0-----|
D|-5--5--5--5--5-5-5-5-----------------------------------------------|

e|-------------------------------------------------------------------|
B|-------------------------------------------------------------------|
G|-------------------------------------------4--4--4--4--4-4-4-4-----|
D|-------------------------------------------4--4--4--4--4-4-4-4-----|
A|-5--5--5--5--5-5-5-5--5--5--5--5--5-5-5-5--2--2--2--2--2-2-2-2-----|
D|-5--5--5--5--5-5-5-5--5--5--5--5--5-5-5-5--------------------------|

e|-------------------------------------------------------------------|
B|-------------------------------------------------------------------|
G|-2--2--2--2--2-2-2-2-----------------------------------------------|
D|-2--2--2--2--2-2-2-2-----------------------------------------------|
A|-0--0--0--0--0-0-0-0--5--5--5--5--5-5-5-5--5--5--5--5--5-5-5-5-----|
D|----------------------5--5--5--5--5-5-5-5--5--5--5--5--5-5-5-5-----|

e|-------------------------------------------------------------------|
B|-------------------------------------------------------------------|
G|-4~--------------2~------------------------------------------------|
D|-4~--------------2~------------------------------------------------|
A|-2~--------------0~--------------5--5-5-5-5-5-5-5-5-5-5-5-5-5-5-5--|
D|---------------------------------5--5-5-5-5-5-5-5-5-5-5-5-5-5-5-5--|
                                      pm...........................


SLOW PRETTY PART
   "When I look into your eyes..."
e|-------------------------------------------------------------------|
B|-------------------------------------------------------------------|
G|---------------------7-7-7--7--7-7-7-7---7/9\7---7-7-7-7-7--7--7-7-|
D|---------------------7-7-7--7--7-7-7-7-----------7-7-7-7-7--7--7-7-|
A|-0~------------------5-5-5--5--5-5-5-5---5/7\5---5-5-5-5-5--5--5-5-|
D|-0~------------------5-5-5--5--5-5-5-5-----------5-5-5-5-5--5--5-5-|
                       pm.       .......           .......       ...
e|-------------------------------------------------------------------|
B|-------------------------------------------------------------------|
G|-7\6-6-6\4-4-4\2-------6----6h7-6-4-2----7-7-7x----7-7-7x----7-7-7-|
D|-----------------------------------------7-7-7x----7-7-7x----7-7-7-|
A|-5\4-4-4\2-2-2\0--0~---------------------5-5-5x----5-5-5x----5-5-5-|
D|------------------0~---------------------5-5-5x----5-5-5x----5-5-5-|

e|-------------------------------------------------------------------|
B|-------------------------------------------2---2--2--3-3--2--2-2-2-|
G|-7-7-7x---7-7-7x--------------7--7--6--6---4---4--4--4-4--4--4-4-4-|
D|-7-7-7x---7-7-7x---5h7---------------------4---4--4--4-4--4--4-4-4-|
A|-5-5-5x---5-5-5x--------0--0--5--5--4--4---2---2--2--2-2--2--2-2-2-|
D|-5-5-5x---5-5-5x--------0--0---------------------------------------|

e|-------------------------------------------------------------------|
B|-------------------------------------------------------------------|
G|-7-7-7--7--7-7-7-7---7/9\7---7-7-7-7-7--7--7-7--7\6-6-6\4-4-4\2----|
D|-7-7-7--7--7-7-7-7-----------7-7-7-7-7--7--7-7---------------------|
A|-5-5-5--5--5-5-5-5---5/7\5---5-5-5-5-5--5--5-5--5\4-4-4\2-2-2\0----|
D|-5-5-5--5--5-5-5-5-----------5-5-5-5-5--5--5-5---------------------|

e|-------------------------------------------------------------------|
B|---------------------2---2--2--3-3--2--2-2-2--7-7-7x----7-7-7x-----|
G|--------7--7--6--6---4---4--4--4-4--4--4-4-4--7-7-7x----7-7-7x-----|
D|---------------------4---4--4--4-4--4--4-4-4--5-5-5x----5-5-5x-----|
A|-0--0---5--5--4--4---2---2--2--2-2--2--2-2-2--5-5-5x----5-5-5x-----|
D|-0--0--------------------------------------------------------------|

e|-------------------------------------------------------------------|
B|-7-7-7-------------------------------------------------------------|
G|-7-7-7--6-6-6x---6-6-6x--------------------------------------------|
D|-5-5-5--7-7-7x---7-7-7x--------------------------------------------|
A|-5-5-5--4-4-4x---4-4-4x--------------------------------------------|
D|-----------------------------------------0~------------------------|


----------------
 GUITAR 2 PARTS
----------------

INTRO
  "When I look into your eyes..."
e|-------------------------------------------------------------------|
B|--------------------2---2--2--3-3--2--2-2-2------------------------|
G|------11-11--9--9---4---4--4--4-4--4--4-4-4--7-7-7--7--7-7-7-7-----|
D|--------------------4---4--4--4-4--4--4-4-4--7-7-7--7--7-7-7-7-----|
A|-0--0--9--9--7--7---2---2--2--2-2--2--2-2-2--5-5-5--5--5-5-5-5-----|
D|-0--0----------------------------------------5-5-5--5--5-5-5-5-----|
                                               pm.       .......
e|-------------------------------------------------------------------|
B|-------------------------------------------------------------------|
G|-11/12\11-7-7-7-7-7--7--7-7--11\9-9-9\7-7-7\6--------11-11--9--9---|
D|----------7-7-7-7-7--7--7-7----------------------------------------|
A|--9/10\9--5-5-5-5-5--5--5-5---9\7-7-7\5-5-5\4---0--0--9--9--7--7---|
D|----------5-5-5-5-5--5--5-5---------------------0--0---------------|
            pm.....       ....
e|-------------------------------------------------------------------|
B|----2---2--2--3-3--2--2-2-2----------------------------------------|
G|----4---4--4--4-4--4--4-4-4--7-7-7x----7-7-7x----7-7-7--7-7-7x-----|
D|----4---4--4--4-4--4--4-4-4--7-7-7x----7-7-7x----7-7-7--7-7-7x-----|
A|----2---2--2--2-2--2--2-2-2--5-5-5x----5-5-5x----5-5-5--5-5-5x-----|
D|-----------------------------5-5-5x----5-5-5x----5-5-5--5-5-5x-----|

e|-------------------------------------------------------------------|
B|-----------------------------------2---2--2--3-3--2--2-2-2---------|
G|-7-7-7x--------------11-11--9--9---4---4--4--4-4--4--4-4-4--7-7-7--|
D|-7-7-7x----------------------------4---4--4--4-4--4--4-4-4--7-7-7--|
A|-5-5-5x---------0--0--9--9--7--7---2---2--2--2-2--2--2-2-2--5-5-5--|
D|-5-5-5x---------0--0----------------------------------------5-5-5--|
                                                              pm.
e|-------------------------------------------------------------------|
B|-------------------------------------------------------------------|
G|-7--7-7-7-7--11/12\11--7-7-7-7-7--7--7-7--11\9-9-9\7-7-7\6---------|
D|-7--7-7-7-7------------7-7-7-7-7--7--7-7---------------------------|
A|-5--5-5-5-5---9/10\9---5-5-5-5-5--5--5-5---9\7-7-7\5-5-5\4---0--0--|
D|-5--5-5-5-5------------5-5-5-5-5--5--5-5---------------------0--0--|
      pm.....            .......       ...
e|-------------------------------------------------------------------|
B|---------------2---2--2--3-3--2--2-2-2-----------------------------|
G|-11-11--9--9---4---4--4--4-4--4--4-4-4--7-7-7x----7-7-7x----7-7-7--|
D|---------------4---4--4--4-4--4--4-4-4--7-7-7x----7-7-7x----7-7-7--|
A|--9--9--7--7---2---2--2--2-2--2--2-2-2--5-5-5x----5-5-5x----5-5-5--|
D|----------------------------------------5-5-5x----5-5-5x----5-5-5--|

e|-------------------------------------------------------------------|
B|-------------------------------------------------------------------|
G|-6-6-6x---6-6-6x---------------------------------------------------|
D|-7-7-7x---7-7-7x---------------------------------------------------|
A|-4-4-4x---4-4-4x---------------------------------------------------|
D|-------------------------------------------------------------------|


VERSE
   "I don't know you anymore..."
e|-------------------------------------------------------------------|
B|------------------------------------------2h3p2---2----------------|
G|------------------------------------------------4---4-2-4----------|
D|-------------------------------------------------------------------|
A|-------------------------------------------------------------------|
D|-------------------------------------------------------------------|

e|-------------------------------------------------------------------|
B|-------------------------------------------------------------------|
G|-2-2-2-2-2-2-2-2-2-2-2-2-2-2-2-2-6-6-6-6x-----7~-------------------|
D|-2-2-2-2-2-2-2-2-2-2-2-2-2-2-2-2-7-7-7-7x-----7~-------------------|
A|-0-0-0-0-0-0-0-0-0-0-0-0-0-0-0-0-4-4-4-4x-----5~-------------------|
D|-------------------------------------------------------------------|

e|---------------------------------------------------------------0---|
B|---------------------------------------------------2h3p2---2-3-----|
G|---------------------------------2-2-2-2-2-2-4-4-4-------4---------|
D|-4-4-4-4-4-4-6-6-6-6-6-6-6-6-6-6-----------------------------------|
A|-------------------------------------------------------------------|
D|-------------------------------------------------------------------|
   pm...............................(slowly release)

e|-------------------------------------------------------------------|
B|-------------------------------------------------------------------|
G|-2-2-2-2-2-2-2-2-2-2-2-2-2-2-2-2-6-6-6-6x-----7~-------------------|
D|-2-2-2-2-2-2-2-2-2-2-2-2-2-2-2-2-7-7-7-7x-----7~-------------------|
A|-0-0-0-0-0-0-0-0-0-0-0-0-0-0-0-0-4-4-4-4x-----5~-------------------|
D|-------------------------------------------------------------------|


BRAND NEW SONG (x2)
   "Start a brand new song..."
e|--------------------------------|----------------------------------|
B|-------(only-play-the-----------|----------------------------------|
G|-7-7-7-------second-time)-------|--------------------4-4--4--4-4-4-|
D|-7-7-7--------------------------|--------------------4-4--4--4-4-4-|
A|-5-5-5--4--5-5--5--5-5-5--2-2-2-|-4---5-5--5--5-5-5--2-2--2--2-2-2-|
D|--------4--5-5--5--5-5-5--2-2-2-|-4---5-5--5--5-5-5----------------|

e|----------------|-------------------|------------------------------|
B|----------------|--(first-time)-----|------(second-time)-----------|
G|-2-2--2--2-2-2--|-------------------|------------------------------|
D|-2-2--2--2-2-2--|-------------------|------------------------------|
A|-0-0--0--0-0-0--|--5--5--5--5--5-5--|-5-5--5--5-5-5-5-5--5-5-5-5-5-|
D|----------------|--5--5--5--5--5-5--|-5-5--5--5-5-5-5-5--5-5-5-5-5-|
                                                             pm.....

VIOLIN PART
   "If once, you could only understand..."
e|--0~----2~-----------------------------0~----2~--------------------|
B|------------3~-----------------------------------3~----------------|
G|-------------------------------------------------------------------|
D|------------------------4~--2~--0~---------------------------------|
A|------------------0~-----------------------------------------------|
D|-------------------------------------------------------------------|

e|-------------------------------------------------------------------|
B|-------------------------------------------------------------------|
G|-2-2-2-2-2-2-2-2-2-2-2-2-2-2-2-2-----------------------------------|
D|-2-2-2-2-2-2-2-2-2-2-2-2-2-2-2-2-----------------------------------|
A|-0-0-0-0-0-0-0-0-0-0-0-0-0-0-0-0-5x--------------------------------|
D|---------------------------------5x--------------------------------|
     pm...........................


FAST PART (x2) (this is really the violin part)
   "You were young like me..."
e|-------------------------------------------------------------------|
B|-------------------------------------------------------------------|
G|-------------------------------------------------------------------|
D|-4--4--4--4--4-4-4-4--4--4--4--4--4-4-4-4--2--2--2--2--2-2-2-2-----|
A|-------------------------------------------------------------------|
D|-------------------------------------------------------------------|
            pm........           ..........           ..........
e|-------------------------------------------------------------------|
B|-------------------------------------------------------------------|
G|-------------------------------------------------------------------|
D|-2--2--2--2--2-2-2-2--4--4--4--4--4-4-4-4--7-9-7-5-4--2~-4~--2h4p2-|
A|-------------------------------------------------------------------|
D|-------------------------------------------------------------------|
            pm........           ..........


NEXT FAST PART
   "And now it's time, you took something back...."
e|-------------------------------------------------------------------|
B|-------------------------------------------------------------------|
G|-------------------------------------------------------------------|
D|-------------------------------------------------------------------|
A|-5--5--5--5--5-5-5-5--5--5--5--5--5-5-5-5--5--5--5--5--5-5-5-5-----|
D|-5--5--5--5--5-5-5-5--5--5--5--5--5-5-5-5--5--5--5--5--5-5-5-5-----|

e|-------------------------------------------------------------------|
B|-------------------------------------------------------------------|
G|----------------------4--4--4--4--4-4-4-4--2--2--2--2--2-2-2-2-----|
D|----------------------4--4--4--4--4-4-4-4--2--2--2--2--2-2-2-2-----|
A|-5--5--5--5--5-5-5-5--2--2--2--2--2-2-2-2--0--0--0--0--0-0-0-0-----|
D|-5--5--5--5--5-5-5-5-----------------------------------------------|

e|-------------------------------------------------------------------|
B|-------------------------------------------------------------------|
G|-------------------------------------------4--4--4--4--4-4-4-4-----|
D|-------------------------------------------4--4--4--4--4-4-4-4-----|
A|-5--5--5--5--5-5-5-5--5--5--5--5--5-5-5-5--2--2--2--2--2-2-2-2-----|
D|-5--5--5--5--5-5-5-5--5--5--5--5--5-5-5-5--------------------------|

e|-------------------------------------------------------------------|
B|-------------------------------------------------------------------|
G|-2--2--2--2--2-2-2-2-----------------------------------------------|
D|-2--2--2--2--2-2-2-2-----------------------------------------------|
A|-0--0--0--0--0-0-0-0--5--5--5--5--5-5-5-5--5--5--5--5--5-5-5-5-----|
D|----------------------5--5--5--5--5-5-5-5--5--5--5--5--5-5-5-5-----|

e|-------------------------------------------------------------------|
B|-------------------------------------------------------------------|
G|-4~--------------2~------------------------------------------------|
D|-4~--------------2~------------------------------------------------|
A|-2~--------------0~--------------5--5-5-5-5-5-5-5-5-5-5-5-5-5-5-5--|
D|---------------------------------5--5-5-5-5-5-5-5-5-5-5-5-5-5-5-5--|
                                      pm...........................


SLOW PRETTY PART
   "When I look into your eyes..."
e|-------------------------------------------------------------------|
B|-------------------------------------------------------------------|
G|---------------------7-7-7--7--7-7-7-7--11/12\11-7-7-7-7-7--7--7-7-|
D|---------------------7-7-7--7--7-7-7-7-----------7-7-7-7-7--7--7-7-|
A|-0~------------------5-5-5--5--5-5-5-5---9/10\9--5-5-5-5-5--5--5-5-|
D|-0~------------------5-5-5--5--5-5-5-5-----------5-5-5-5-5--5--5-5-|
                       pm.       .......           .......       ...
e|-------------------------------------------------------------------|
B|------------------------7----7h8-7-5-------------------------------|
G|-11\9-9-9\7-7-7\6--------------------7---7-7-7x----7-7-7x----7-7-7-|
D|-----------------------------------------7-7-7x----7-7-7x----7-7-7-|
A|--9\7-7-7\5-5-5\4--0~--------------------5-5-5x----5-5-5x----5-5-5-|
D|-------------------0~--------------------5-5-5x----5-5-5x----5-5-5-|

e|-------------------------------------------------------------------|
B|-------------------------------------------2---2--2--3-3--2--2-2-2-|
G|-7-7-7x---7-7-7x-------------11-11--9--9---4---4--4--4-4--4--4-4-4-|
D|-7-7-7x---7-7-7x---------------------------4---4--4--4-4--4--4-4-4-|
A|-5-5-5x---5-5-5x--------0--0--9--9--7--7---2---2--2--2-2--2--2-2-2-|
D|-5-5-5x---5-5-5x--------0--0---------------------------------------|

e|-------------------------------------------------------------------|
B|-------------------------------------------------------------------|
G|-7-7-7--7--7-7-7-7--11/12\11--7-7-7-7-7--7--7-7--11\9-9-9\7-7-7\6--|
D|-7-7-7--7--7-7-7-7------------7-7-7-7-7--7--7-7--------------------|
A|-5-5-5--5--5-5-5-5---9/10\9---5-5-5-5-5--5--5-5---9\7-7-7\5-5-5\4--|
D|-5-5-5--5--5-5-5-5------------5-5-5-5-5--5--5-5--------------------|

e|-------------------------------------------------------------------|
B|---------------------2---2--2--3-3--2--2-2-2--7-7-7x----7-7-7x-----|
G|-------11-11--9--9---4---4--4--4-4--4--4-4-4--7-7-7x----7-7-7x-----|
D|---------------------4---4--4--4-4--4--4-4-4--5-5-5x----5-5-5x-----|
A|-0--0---9--9--7--7---2---2--2--2-2--2--2-2-2--5-5-5x----5-5-5x-----|
D|-0--0--------------------------------------------------------------|

e|-------------------------------------------------------------------|
B|-7-7-7-------------------------------------------------------------|
G|-7-7-7--6-6-6x---6-6-6x--------------------------------------------|
D|-5-5-5--7-7-7x---7-7-7x------------------*-------------------------|
A|-5-5-5--4-4-4x---4-4-4x------------------5-------------------------|
D|-------------------------------------------------------------------|

---------------------------------------------------------------------
3. Something of Value
---------------------------------------------------------------------

Standard Tuning
Acoustic Guitar

+  on beat, +  down strum, -  up strum

Intro:
e|-3---3--3-3--3-3-3-3-|
B|-3---3--3-3--3-3-3-3-|
G|-0---0--0-0--0-0-0-0-|
D|-2---2--2-2--2-2-2-2-|
A|-3---3--3-3--3-3-3-3-|
E|---------------------|
   +   +  - +  + - + -

e|-3--3-3-3-3-3--3-3-3-3-3--3-3-3-3-3--3-3-3-3-|3--3-3-3-3-3--3-3-3-3-3--3-3-3-3-3--3-3-3-3-|
B|-3--3-3-3-3-3--3-3-3-3-3--3-3-3-3-3--3-3-3-3-|3--3-3-3-3-3--3-3-3-3-3--3-3-3-3-3--3-3-3-3-|
G|-0--0-0-0-0-0--0-0-0-0-0--0-0-0-0-0--0-0-0-0-|0--0-0-0-0-0--0-0-0-0-0--0-0-0-0-0--0-0-0-0-|
D|-2--2-2-2-2-2--2-2-2-2-2--2-2-2-2-2--2-2-2-2-|0--0-0-0-0-0--0-0-0-0-0--0-0-0-0-0--0-0-0-0-|
A|-3--3-3-3-3-3--3-3-3-3-3--3-3-3-3-3--3-3-3-3-|2--2-2-2-2-2--2-2-2-2-2--2-2-2-2-2--2-2-2-2-|
E|---------------------------------------------|3--3-3-3-3-3--3-3-3-3-3--3-3-3-3-3--3-3-3-3-|
   +  + - + - +  + - + - +  + - + - +  + - + -  +  + - + - +  + - + - +  + - + - +  + -
-
	     All that I   needed to   hear from     you,        something of value but
    untrue

e|-0--0-0-0-0-0--0-0-0-0-0--0-0-0-0-0--0-0-0-0-|0--0-0-0-0-0--0-0-0-0-0------|
B|-3--3-3-3-3-3--3-3-3-3-3--3-3-3-3-3--3-3-3-3-|3--3-3-3-3-3--3-3-3-3-3------|
G|-2--2-2-2-2-2--2-2-2-2-2--2-2-2-2-2--2-2-2-2-|2--2-2-2-2-2--2-2-2-2-2------|
D|-0--0-0-0-0-0--0-0-0-0-0--0-0-0-0-0--0-0-0-0-|0--0-0-0-0-0--0-0-0-0-0------|
A|-x--x-x-x-x-x--x-x-x-x-x--x-x-x-x-x--x-x-x-x-|x--x-x-x-x-x--x-x-x-x-x------|
E|-2--2-2-2-2-2--2-2-2-2-2--2-2-2-2-2--2-2-2-2-|2--2-2-2-2-2--2-2-2-2-2------|
   +  + - + - +  + - + - +  + - + - +  + - + -  +  + - + - +  + - + - +
                All that I  wished that I'd find within you...

e||--0--0-0-0-0-0--0-0-0-0-0--0-0-0-0-0--0-0-0-0-|0--0-0-0-0-0--0-0-0-0-0--0-0-0-0-0--0-0-0-0--||
B||--0--0-0-0-0-0--0-0-0-0-0--0-0-0-0-0--0-0-0-0-|0--0-0-0-0-0--0-0-0-0-8--8-8-8-8-8--8-8-8-8--||
G||*-0--0-0-0-0-0--0-0-0-0-4--4-4-4-4-4--4-4-4-4-|4--4-4-4-4-4--4-4-4-4-9--9-9-9-9-9--9-9-9-9-*||
D||*-2--2-2-2-2-2--2-2-2-2-5--5-5-5-5-5--5-5-5-5-|5--5-5-5-5-5--5-5-5-5-9--9-9-9-9-9--9-9-9-9-*||
A||--2--2-2-2-2-2--2-2-2-2-4--4-4-4-4-4--4-4-4-4-|3--3-3-3-3-3--3-3-3-3-7--7-7-7-7-7--7-7-7-7--||
E||--0--0-0-0-0-0--0-0-0-0-----------------------|----------------------0--0-0-0-0-0--0-0-0-0--||
     +  + - + - +  + - + - +  + - + - +  + - + -  +  + - + - +  + - + - +  + - + - +  + -+ -


e||----------------------------------------------|----------------------0--0-0-0-0-0--0-0-0-0--||
B||----------------------------------------------|----------------------8--8-8-8-8-8--8-8-8-8--||
G||*-4--4-4-4-4-4--4-4-4-4-4--4-4-4-4-4--4-4-4-4-|4--4-4-4-4-4--4-4-4-4-9--9-9-9-9-9--9-9-9-9-*||
D||*-5--5-5-5-5-5--5-5-5-5-5--5-5-5-5-5--5-5-5-5-|5--5-5-5-5-5--5-5-5-5-9--9-9-9-9-9--9-9-9-9-*||
A||--5--5-5-5-5-5--5-5-5-5-4--4-4-4-4-4--4-4-4-4-|3--3-3-3-3-3--3-3-3-3-7--7-7-7-7-7--7-7-7-7--||
E||----------------------------------------------|----------------------0--0-0-0-0-0--0-0-0-0--||
     +  + - + - +  + - + - +  + - + - +  + - + -  +  + - + - +  + - + - +  + - + - +  + -+ -
  1. See  how    what  she     wanted       and she       needed,                 tore
all  down in the     end
  2. Somehow     like a        sickness        she        infects me, she's       simple
  deadly my       friend

e|-3--3-3-3-3-3--3-3-3-3-3--3-3-3-3-3--3-3-3-3-|3--3-3-3-3-3--3-3-3-3-3--3-3-3-3-3--3-3-3-3-|
B|-3--3-3-3-3-3--3-3-3-3-3--3-3-3-3-3--3-3-3-3-|3--3-3-3-3-3--3-3-3-3-3--3-3-3-3-3--3-3-3-3-|
G|-0--0-0-0-0-0--0-0-0-0-0--0-0-0-0-0--0-0-0-0-|0--0-0-0-0-0--0-0-0-0-0--0-0-0-0-0--0-0-0-0-|
D|-2--2-2-2-2-2--2-2-2-2-2--2-2-2-2-2--2-2-2-2-|0--0-0-0-0-0--0-0-0-0-0--0-0-0-0-0--0-0-0-0-|
A|-3--3-3-3-3-3--3-3-3-3-3--3-3-3-3-3--3-3-3-3-|2--2-2-2-2-2--2-2-2-2-2--2-2-2-2-2--2-2-2-2-|
E|---------------------------------------------|3--3-3-3-3-3--3-3-3-3-3--3-3-3-3-3--3-3-3-3-|
   +  + - + - +  + - + - +  + - + - +  + - + -  +  + - + - +  + - + - +  + - + - +  + -
-
	     All that I   needed to   hear from     you,        something of value but
    untrue

e|-0--0-0-0-0-0--0-0-0-0-0--0-0-0-0-0--0-0-0-0-|0--0-0-0-0-0--0-0-0-0-0--0-0-0-0-0--0-0-0-0-|
B|-3--3-3-3-3-3--3-3-3-3-3--3-3-3-3-3--3-3-3-3-|3--3-3-3-3-3--3-3-3-3-3--3-3-3-3-3--3-3-3-3-|
G|-2--2-2-2-2-2--2-2-2-2-2--2-2-2-2-2--2-2-2-2-|2--2-2-2-2-2--2-2-2-2-2--2-2-2-2-2--2-2-2-2-|
D|-0--0-0-0-0-0--0-0-0-0-0--0-0-0-0-0--0-0-0-0-|0--0-0-0-0-0--0-0-0-0-0--0-0-0-0-0--0-0-0-0-|
A|-x--x-x-x-x-x--x-x-x-x-x--x-x-x-x-x--x-x-x-x-|x--x-x-x-x-x--x-x-x-x-x--x-x-x-x-x--x-x-x-x-|
E|-2--2-2-2-2-2--2-2-2-2-2--2-2-2-2-2--2-2-2-2-|2--2-2-2-2-2--2-2-2-2-2--2-2-2-2-2--2-2-2-2-|
   +  + - + - +  + - + - +  + - + - +  + - + -  +  + - + - +  + - + - +  + - + - +  + -
-
                All that I  wished that I'd find within you,       stings when I see all
ways that you

e||--3--3-3-3-3-0--0-0-0-0-0--0-0-0-0-0--0-0-0-0-|3--3-3-3-3-0--0-0-0-0-3--3-3-3-3-3--3-3-3-3--||
B||--3--3-3-3-3-1--1-1-1-1-0--0-0-0-0-1--1-1-1-1-|3--3-3-3-3-3--3-3-3-3-3--3-3-3-3-3--3-3-3-3--||
G||*-0--0-0-0-0-2--2-2-2-2-0--0-0-0-0-0--0-0-0-0-|0--0-0-0-0-2--2-2-2-2-0--0-0-0-0-0--0-0-0-0-*||
D||*-0--0-0-0-0-2--2-2-2-2-2--2-2-2-2-2--2-2-2-2-|0--0-0-0-0-0--0-0-0-0-2--2-2-2-2-2--2-2-2-2-*||
A||--2--2-2-2-2-0--0-0-0-0-2--2-2-2-2-3--3-3-3-3-|2--2-2-2-2-x--x-x-x-x-3--3-3-3-3-3--3-3-3-3--||
E||--3--3-3-3-3------------0--0-0-0-0------------|3--3-3-3-3-2--2-2-2-2------------------------||
     +  + - + - +  + - + - +  + - + - +  + - + -  +  + - + - +  + - + - +  + - + - +  + -+ -
  1. Took me for  granted and  told me it's through,     picked from my pockets and smiled
  2. Empty is     nothing and  nothing is   you, I       think I'll just sit for a while

e|--------------|------------|---------|-----------------------------|
B|--------------|------------|---------|------8------8---------------|
G|--------------|-------4----|-------4-|---------------------------4-|
D|---------2----|----5-------|----5----|----9------9-------------5---|
A|------2-------|-4----------|-3-------|--7------7-------------5-----|
E|---0----------|------------|---------|-----------------------------|
   See how what  I  wanted and  I  needed,  it  wasn't enough in the  end
						     Somehow
e|--------------------|---------|---------------------------|
B|--------------------|---------|---------8----------8------|
G|---------------4----|-------4-|---------------------------|
D|------------5-------|----5----|-------9----------9--------|
A|---------4----------|-3-------|-----7----------7----------|
E|--------------------|---------|---------------------------|
   with a  quickness  I    forgot her, I realized she wasn't my    friend

e||--0--0-0-0-0-0--0-0-0-0-0--0-0-0-0-0--0-0-0-0-|0--0-0-0-0-0--0-0-0-0-0--0-0-0-0-0--0-0-0-0--||
B||--0--0-0-0-0-0--0-0-0-0-0--0-0-0-0-0--0-0-0-0-|0--0-0-0-0-0--0-0-0-0-8--8-8-8-8-8--8-8-8-8--||
G||*-0--0-0-0-0-0--0-0-0-0-4--4-4-4-4-4--4-4-4-4-|4--4-4-4-4-4--4-4-4-4-9--9-9-9-9-9--9-9-9-9-*||
D||*-2--2-2-2-2-2--2-2-2-2-5--5-5-5-5-5--5-5-5-5-|5--5-5-5-5-5--5-5-5-5-9--9-9-9-9-9--9-9-9-9-*||
A||--2--2-2-2-2-2--2-2-2-2-4--4-4-4-4-4--4-4-4-4-|3--3-3-3-3-3--3-3-3-3-7--7-7-7-7-7--7-7-7-7--||
E||--0--0-0-0-0-0--0-0-0-0-----------------------|----------------------0--0-0-0-0-0--0-0-0-0--||
     +  + - + - +  + - + - +  + - + - +  + - + -  +  + - + - +  + - + - +  + - + - +  + -+ -
   1. See how       what I     wanted         and I      needed,       it         wasn't
     enough in the  end
   2. Somehow       with a     quickness        I        forgot her,   I
she wasn't my      friend

e||----------------------------------------------|----------------------0--0-0-0-0-0--0-0-0-0--||
B||----------------------------------------------|----------------------8--8-8-8-8-8--8-8-8-8--||
G||*-4--4-4-4-4-4--4-4-4-4-4--4-4-4-4-4--4-4-4-4-|4--4-4-4-4-4--4-4-4-4-9--9-9-9-9-9--9-9-9-9-*||
D||*-5--5-5-5-5-5--5-5-5-5-5--5-5-5-5-5--5-5-5-5-|5--5-5-5-5-5--5-5-5-5-9--9-9-9-9-9--9-9-9-9-*||
A||--5--5-5-5-5-5--5-5-5-5-4--4-4-4-4-4--4-4-4-4-|3--3-3-3-3-3--3-3-3-3-7--7-7-7-7-7--7-7-7-7--||
E||----------------------------------------------|----------------------0--0-0-0-0-0--0-0-0-0--||
     +  + - + - +  + - + - +  + - + - +  + - + -  +  + - + - +  + - + - +  + - + - +  + -+ -


e|-3--3-3-3-3-3--3-3-3-3-3--3-3-3-3-3--3-3-3-3-|3--3-3-3-3-3--3-3-3-3-3--3-3-3-3-3--3-3-3-3-|
B|-3--3-3-3-3-3--3-3-3-3-3--3-3-3-3-3--3-3-3-3-|3--3-3-3-3-3--3-3-3-3-3--3-3-3-3-3--3-3-3-3-|
G|-0--0-0-0-0-0--0-0-0-0-0--0-0-0-0-0--0-0-0-0-|0--0-0-0-0-0--0-0-0-0-0--0-0-0-0-0--0-0-0-0-|
D|-2--2-2-2-2-2--2-2-2-2-2--2-2-2-2-2--2-2-2-2-|0--0-0-0-0-0--0-0-0-0-0--0-0-0-0-0--0-0-0-0-|
A|-3--3-3-3-3-3--3-3-3-3-3--3-3-3-3-3--3-3-3-3-|2--2-2-2-2-2--2-2-2-2-2--2-2-2-2-2--2-2-2-2-|
E|---------------------------------------------|3--3-3-3-3-3--3-3-3-3-3--3-3-3-3-3--3-3-3-3-|
   +  + - + - +  + - + - +  + - + - +  + - + -  +  + - + - +  + - + - +  + - + - +  + -
-
	     All that I  needed to    hear from    you,         something of value but
    untrue

e|-0--0-0-0-0-0--0-0-0-0-0--0-0-0-0-0--0-0-0-0-|0--0-0-0-0-0--0-0-0-0-0--0-0-0-0-0--0-0-0-0-|
B|-3--3-3-3-3-3--3-3-3-3-3--3-3-3-3-3--3-3-3-3-|3--3-3-3-3-3--3-3-3-3-3--3-3-3-3-3--3-3-3-3-|
G|-2--2-2-2-2-2--2-2-2-2-2--2-2-2-2-2--2-2-2-2-|2--2-2-2-2-2--2-2-2-2-2--2-2-2-2-2--2-2-2-2-|
D|-0--0-0-0-0-0--0-0-0-0-0--0-0-0-0-0--0-0-0-0-|0--0-0-0-0-0--0-0-0-0-0--0-0-0-0-0--0-0-0-0-|
A|-x--x-x-x-x-x--x-x-x-x-x--x-x-x-x-x--x-x-x-x-|x--x-x-x-x-x--x-x-x-x-x--x-x-x-x-x--x-x-x-x-|
E|-2--2-2-2-2-2--2-2-2-2-2--2-2-2-2-2--2-2-2-2-|2--2-2-2-2-2--2-2-2-2-2--2-2-2-2-2--2-2-2-2-|
   +  + - + - +  + - + - +  + - + - +  + - + -  +  + - + - +  + - + - +  + - + - +  + -
-
                All that I  wished that I'd find within you,       stings when I see all
ways that you

e||--3--3-3-3-3-0--0-0-0-0-0--0-0-0-0-0--0-0-0-0-|3--3-3-3-3-0--0-0-0-0-3--3-3-3-3-3--||
B||--3--3-3-3-3-1--1-1-1-1-0--0-0-0-0-1--1-1-1-1-|3--3-3-3-3-3--3-3-3-3-3--3-3-3-3-3--||
G||*-0--0-0-0-0-2--2-2-2-2-0--0-0-0-0-0--0-0-0-0-|0--0-0-0-0-2--2-2-2-2-0--0-0-0-0-0-*||
D||*-0--0-0-0-0-2--2-2-2-2-2--2-2-2-2-2--2-2-2-2-|0--0-0-0-0-0--0-0-0-0-2--2-2-2-2-2-*||
A||--2--2-2-2-2-0--0-0-0-0-2--2-2-2-2-3--3-3-3-3-|2--2-2-2-2-x--x-x-x-x-3--3-3-3-3-3--||
E||--3--3-3-3-3------------0--0-0-0-0------------|3--3-3-3-3-2--2-2-2-2---------------||
     +  + - + - +  + - + - +  + - + - +  + - + -  +  + - + - +  + - + - +  + - + - +
2x, only + for 5)
  1. Took me for  granted and  told me it's through,     picked from my pockets and smiled
  2. Empty is     nothing and  nothing is   you, I       think I'll just sit for a  while

e|---------7-8-9-||-10~--8-7-8-7----8-7-10-8-7-8-7------||-----------------------|
B|-7-8---10------||--------------8-----------------10---||-7---8---10---7----(8)-|
G|---------------||*-----------------------------------*||-----------------------|
D|---------------||*-----------------------------------*||-----------------------|
A|---------------||-------------------------------------||-----------------------|
E|---------------||-------------------------------------||-----------------------|

e|-3--3-3-3-3-3--3-3-3-3-3--3-3-3-3-3--3-3-3-3-|3--3-3-3-3-3--3-3-3-3-3---------------3--||
B|-3--3-3-3-3-3--3-3-3-3-3--3-3-3-3-3--3-3-3-3-|3--3-3-3-3-3--3-3-3-3-3---------------3--||
G|-0--0-0-0-0-0--0-0-0-0-0--0-0-0-0-0--0-0-0-0-|0--0-0-0-0-0--0-0-0-0-0---------------0--||
D|-2--2-2-2-2-2--2-2-2-2-2--2-2-2-2-2--2-2-2-2-|0--0-0-0-0-0--0-0-0-0-0---------------0--||
A|-3--3-3-3-3-3--3-3-3-3-3--3-3-3-3-3--3-3-3-3-|2--2-2-2-2-2--2-2-2-2-2---------------2--||
E|---------------------------------------------|3--3-3-3-3-3--3-3-3-3-3---------------3--||
   +  + - + - +  + - + - +  + - + - +  + - + -  +  + - + - +  + - + - +               + (slowly)
                All that I   wished that I'd find within you,      something of value...
something untrue

------------------------------------------------------------------------------
4. Trembling
------------------------------------------------------------------------------

Drop D Tuning

------------------
 GUITAR ONE PARTS
------------------

INTRO(x2)  (in Drop D) "Trembling..."
e|---------------------------------------------------------------------------|
B|---------------------------------------------------------------------------|
G|----------------------------------------------------4-----2----------------|
D|------5-0-0-4-0-0-5-0-0-4-0-0-0---------5-0-0-4-0-0---5p0---4p0-4h5--------|
A|----2---------------------------------2------------------------------------|
D|-2~--------------------------------2~--------------------------------------|

INTRO CON't
e|---------------------------------------------------------------------------|
B|---------------------------------------------------------------------------|
G|---------------------------------------------------------------------------|
D|------5-0-0-4-0-0-5-0-0-4-0-0-0---------5-0-0-4-0-0-0-4-4-4-4h5~-----------|
A|----2---------------------------------2------------------------------------|
D|-2~--------------------------------2~--------------------------------------|


VERSE  "I'm torn between silence and violent expression..."
e|---------------------------------------------------------------------------|
B|---------------------------------------------------------------------------|
G|-5~----------------4~------------------5~------------------4~--------------|
D|-5~----------------5~------------------5~------------------5~--------------|
A|-3~----------------2~------------------3~------------------2~--------------|
D|---------------------------------------------------------------------------|

e|---------------------------------------------------------------------------|
B|---------------------------------------------------------------------------|
G|-4-4--4--4--4-5-5--5-4-4--4------------------------------4-4--4--4--4-5-5--|
D|-5-5--5--5--5-5-5--5-5-5--5----------------------4h5p4-0-5-5--5--5--5-5-5--|
A|-2-2--2--2--2-3-3--3-2-2--2-0-0--0-0-0--0-0-0--0---------2-2--2--2--2-3-3--|
D|----------------------------0-0--0-0-0--0-0-0--0---------------------------|
                             pm    ...    ...    .
e|---------------------------------------------------------------------------|
B|---------------------------------------------------------------------------|
G|-5-4-4--4-7-7--7--7--7-7x--------------------------------------------------|
D|-5-5-5--5-7-7--7--7--7-7x------4h5p4-0-------------------------------------|
A|-3-2-2--2-5-5--5--5--5-5x--------------------------------------------------|
D|---------------------------------------------------------------------------|

PRE CHORUS  "...never having anyone..."
e|---------------------------------------------------------------------------|
B|---------------------------------------------------------------------------|
G|-4-4--4--4--4-4-4--4--4--4-4-4--4--4--4-4-4--4--4--4-----------------------|
D|-2-2--2--2--2-2-2--2--2--2-2-2--2--2--2-2-2--2--2--2-4-4--4--4--4-4-4--4--4|
A|-2-2--2--2--2-2-2--2--2--2-2-2--2--2--2-2-2--2--2--2-5-5--5--5--5-5-5--5--5|
D|-2-2--2--2--2-2-2--2--2--2-2-2--2--2--2-2-2--2--2--2-4-4--4--4--4-4-4--4--4|

e|---------------------------------------------------------------------------|
B|---------------------------------------------------------------------------|
G|-----------------------------4-4--4--4--4-4-4--4--4--4-4-4--4--4--4-4-4--4-|
D|-4-4-4--4--4--4-4-4--4--4--4-2-2--2--2--2-2-2--2--2--2-2-2--2--2--2-2-2--2-|
A|-5-5-5--5--5--5-5-5--5--5--5-2-2--2--2--2-2-2--2--2--2-2-2--2--2--2-2-2--2-|
D|-4-4-4--4--4--4-4-4--4--4--4-2-2--2--2--2-2-2--2--2--2-2-2--2--2--2-2-2--2-|
                               pm.
e|---------------------------------------------------------------------------|
B|---------------------------------------------------------------------------|
G|-4--4----------------------------------------------------------------------|
D|-2--2-4-4--4--4--4-4-4--4--4--4-4-4--4--4--4-4-4--4--4--4------------------|
A|-2--2-5-5--5--5--5-5-5--5--5--5-5-5--5--5--5-5-5--5--5--5------------------|
D|-2--2-4-4--4--4--4-4-4--4--4--4-4-4--4--4--4-4-4--4--4--4------------------|

CHORUS (x2)  "Haunted by my abandoned dreams..."
e|---------------------------------------------------------------------------|
B|---------------------------------------------------------------------------|
G|-----------------------------------------------------5-5--5--5--5-5-5--5---|
D|-----------------------------------------------------5-5--5--5--5-5-5--5---|
A|-5-5--5--5--5-5-5--5--5--5-2-2--2--2--2-2-2--2--2--2-3-3--3--3--3-3-3--3---|
D|-5-5--5--5--5-5-5--5--5--5-2-2--2--2--2-2-2--2--2--2-----------------------|

e|-------(first-time)---------------|----------(second-time)-----------------|
B|----------------------------------|----------------------------------------|
G|--5--5-4-4--4--4--4-4-4--4--4--4--|--5--5-4-4--4--4--4-4-4--4--4-4-4-------|
D|--5--5-5-5--5--5--5-5-5--5--5--5--|--5--5-5-5--5--5--5-5-5--5--5-5-5-------|
A|--3--3-2-2--2--2--2-2-2--2--2--2--|--3--3-2-2--2--2--2-2-2--2--2-2-2-------|
D|----------------------------------|----------------------------------------|
                                                                 pm...


INTERLUDE (x2)
e|---------------------------------------------------------------------------|
B|---------------------------------------------------------------------------|
G|-----------------------------------------------------------------5-5-5-5x--|
D|-----------------------------------------------------------------5-5-5-5x--|
A|-2-2-2-2x--2-2-2x--2-2x--2-2-2-2-0-0-0-0x--0-0-0x--0-0x--0-0-0-0-3-3-3-3x--|
D|-2-2-2-2x--2-2-2x--2-2x--2-2-2-2-0-0-0-0x--0-0-0x--0-0x--0-0-0-0-----------|

e|---------------------------------------------------------------------------|
B|---------------------------------------------------------------------------|
G|-5-5-5x--5-5x--5-5-5-5-----------------------------------------------------|
D|-5-5-5x--5-5x--5-5-5-5-----------------------------------------------------|
A|-3-3-3x--3-3x--3-3-3-3-0-0-0-0x--0-0-0x--0-0x--0-0-0-0---------------------|
D|-----------------------0-0-0-0x--0-0-0x--0-0x--0-0-0-0---------------------|


REPEAT INTRO


2ND VERSE / OUTRO "We will be together in search of a new life..."
e|---------------------------------------------------------------------------|
B|---------------------------------------------------------------------------|
G|-5~----------------4~------------------5~------------------4~--------------|
D|-5~----------------5~------------------5~------------------5~--------------|
A|-3~----------------2~------------------3~------------------2~--------------|
D|---------------------------------------------------------------------------|

e|---------------------------------------------------------------------------|
B|---------------------------------------------------------------------------|
G|-4-4--4--4--4-5-5--5-4-4-4------------------------------4-4--4--4--4-5-5---|
D|-5-5--5--5--5-5-5--5-5-5-5---0------4------0----4h5p4-0-5-5--5--5--5-5-5---|
A|-2-2--2--2--2-3-3--3-2-2-2-0----0-0----0-0----0---------2-2--2--2--2-3-3---|
D|---------------------------0----0-0----0-0----0----------------------------|
                            pm    ...    ...    .
e|--------------------------------------2~-----------------------------------|
B|--------------------------------------3~-----------------------------------|
G|-5-4-4-4-7-7--7--7--7-7-7--7----------4~-----------------------------------|
D|-5-5-5-5-7-7--7--7--7-7-7--7-4h5p4-0--2~-----------------------------------|
A|-3-2-2-2-5-5--5--5--5-5-5--5----------2~-----------------------------------|
D|--------------------------------------2~-----------------------------------|
                               pm.....

------------------
 GUITAR TWO PARTS
------------------


INTRO


VERSE
e|---------------------------------------------------------------------------|
B|---------------------------------------------------------------------------|
G|-5~----------------7~------------------9~--------5~--------7~--------------|
D|---------------------------------------------------------------------------|
A|-3~----------------5~------------------7~--------3~--------5~--------------|
D|------------------------------0------------------------------------0-------|

e|---------------------------------------------------------------------------|
B|---------------------------------------------------------------------------|
G|-/9-9--9--9--9-9-9--9-9-9--9------------------------------9-9--9--9--9-9-9-|
D|-/9-9--9--9--9-9-9--9-9-9--9-0-0--0-0-4--0-0-0--0-7h9p7---9-9--9--9--9-9-9-|
A|-/7-7--7--7--7-7-7--7-7-7--7----------------------------9-7-7--7--7--7-7-7-|
D|---------------------------------------------------------------------------|
                              pm    ...    ...    .
e|---------------------------------------------------------------------------|
B|---------------------------------------------------------------------------|
G|-9--9-9-9-7-7--7--7--7-7x------2h4p2---------------------------------------|
D|-9--9-9-9----------------------------4-------------------------------------|
A|-7--7-7-7-5-5--5--5--5-5x--------------------------------------------------|
D|---------------------------------------------------------------------------|

PRE CHORUS  "...never having anyone..."
e|---------------------------------------------------------------------------|
B|---------------------------------------------------------------------------|
G|-4-4--4--4--4-11-11--11--11--11-12-12--12--12--12-11-11--11--11--11-16-16--|
D|---------------------------------------------------------------------------|
A|-2-2--2--2--2--9--9---9---9---9-10-10--10--10--10--9--9---9---9---9-14-14--|
D|---------------------------------------------------------------------------|

e|---------------------------------------------------------------------------|
B|---------------------------------------------------------------------------|
G|-16--16--16-11-11--11--11--11-9-9--9--9--9-7-7--7--7--7---0--4--4--4-11-11-|
D|--------------------------------------------------------2------------------|
A|-14--14--14--9--9---9---9---9-7-7--7--7--7-5-5--5--5--5------2--2--2--9--9-|
D|---------------------------------------------------------------------------|
                                                          pm.
e|---------------------------------------------------------------------------|
B|---------------------------------------------------------------------------|
G|-11--11--11-12-12--12--12--12-11-11--11--11--11-16-16--16--16--16-11-11----|
D|---------------------------------------------------------------------------|
A|--9---9---9-10-10--10--10--10--9--9---9---9---9-14-14--14--14--14--9--9----|
D|---------------------------------------------------------------------------|

e|---------------------------------------------------------------------------|
B|---------------------------------------------------------------------------|
G|-11--11--11-9-9--9--9--9-7-7--7--7--7--------------------------------------|
D|---------------------------------------------------------------------------|
A|--9---9---9-7-7--7--7--7-5-5--5--5--5--------------------------------------|
D|---------------------------------------------------------------------------|

CHORUS (x2)  "Haunted by my abandoned dreams..."
e|---------------------------------------------------------------------------|
B|---------------------------------------------------------------------------|
G|4-4--4--4--4-4-4--4--4--4-9-9--9--9--9-9-9--9--9--9-16-16--16--16--16-11-11|
D|---------------------------------------------------------------------------|
A|2-2--2--2--2-2-2--2--2--2-7-7--7--7--7-7-7--7--7--7-14-14--14--14--14--9--9|
D|---------------------------------------------------------------------------|

e|--------(first-time)-----------------|---------(second-time)---------------|
B|-------------------------------------|-------------------------------------|
G|11--11--11-7-7--7--7--7-7-7--7--7--7-|11--11--11-7-7--7--7--7-7-7--7--7-7-7|
D|-------------------------------------|-------------------------------------|
A|-9---9---9-5-5--5--5--5-5-5--5--5--5-|-9---9---9-5-5--5--5--5-5-5--5--5-5-5|
D|-------------------------------------|-------------------------------------|
                                                                        pm...


INTERLUDE (x2)
e|-----7-8--7---------------------------------------------------0--0--0--0--0|
B|---8--------10--8--7--------------7-8--7--10--8-7------------12-12-12-12-12|
G|-9-------------------7-5--------7-----------------9-7----------------------|
D|-------------------------10-9-9-----------------------10-9-7---------------|
A|---------------------------------------------------------------------------|
D|---------------------------------------------------------------------------|

e|--0--0--0--0--0-0-0--0--0-0-0--0--0--0--0--0--0--0--0--0--0-0-0--0--0-0-0--|
B|-12-12-10-10-10-8-8-10-10-8-8-12-12-12-12-12-12-12-10-10-10-8-8-10-10-8-8--|
G|---------------------------------------------------------------------------|
D|---------------------------------------------------------------------------|
A|---------------------------------------------------------------------------|
D|---------------------------------------------------------------------------|


REPEAT INTRO


2ND VERSE / OUTRO "We will be together in search of a new life..."
e|---------------------------------------------------------------------------|
B|---------------------------------------------------------------------------|
G|-5~----------------7~------------------9~--------5~--------7~--------------|
D|---------------------------------------------------------------------------|
A|-3~----------------5~------------------7~--------3~--------5~--------------|
D|------------------------------0------------------------------------0-------|

e|---------------------------------------------------------------------------|
B|---------------------------------------------------------------------------|
G|-/9-9--9--9--9-9-9--9-9-9--9------------------------------9-9--9--9--9-9-9-|
D|-/9-9--9--9--9-9-9--9-9-9--9-0-0--0-0-4--0-0-0--0-7h9p7---9-9--9--9--9-9-9-|
A|-/7-7--7--7--7-7-7--7-7-7--7----------------------------9-7-7--7--7--7-7-7-|
D|---------------------------------------------------------------------------|
                              pm    ...    ...    .
e|-----------------------------------------2~--------------------------------|
B|-----------------------------------------3~--------------------------------|
G|-9--9-9-9-7-7--7--7--7-7-7--7---2h4p2----4~--------------------------------|
D|-9--9-9-9-----------------------------4--2~--------------------------------|
A|-7--7-7-7-5-5--5--5--5-5-5--5------------2~--------------------------------|
D|-----------------------------------------2~--------------------------------|
                                  pm.....


------------------------------------------------------------------------------
5. Sureshot
------------------------------------------------------------------------------

Drop D Tuning

GUITAR 1'S PARTS:
-----------------
Intro:
e|---------------------------------------------------------------------------|
B|---------------------------------------------------------------------------|
G|-------------6-6-6-6-6-6-6-6-6-6-6-6---------9---------------9-------------|
D|-------------6-6-6-6-6-6-6-6-6-6-6-6-----9-------9-------9-------9-------9-|
A|-------------4-4-4-4-4-4-4-4-4-4-4-4-6-6---6---6---6-6-6---6---6---6-7-7---|
D|-pick-slide----------------------------------------------------------------|
                                       ...   .   .   .....   .   .   .....
Intro Con't
e|---------------------------------------------------------------------------|
B|-------------------9-------------------------------------------------------|
G|---9-----------------------4-4-4-4-4-4-4-4-4-4-4-4-------------------------|
D|-------9-------9-------9---4-4-4-4-4-4-4-4-4-4-4-4-------------------------|
A|-7---7---7-7-7---7---7---7-2-2-2-2-2-2-2-2-2-2-2-2-------------------------|
D|---------------------------------------------------------------------------|
   .   .   .....   .   .   .


Verse:  "Can I face this day..."
e|---------------------------------------------------------------------------|
B|---------------------------------------------------------------------------|
G|2~---------6-6-6-6-8-4~-----------------------6-6-6-6x--6-6-6-6x--8-8-8-8x-|
D|2~---------6-6-6-6-8-4~---2-2-2-2x--2-2-2-2x--6-6-6-6x--6-6-6-6x--9-9-9-9x-|
A|0~---------4-4-4-4-6-2~---2-2-2-2x--2-2-2-2x--4-4-4-4x--4-4-4-4x--6-6-6-6x-|
D|--------------------------2-2-2-2x--2-2-2-2x-------------------------------|

Verse Cont'd:
e|---------------------------------------------------------------------------|
B|---------------------------------------------------------------------------|
G|8-8-8-8x--9-9-9-9-9-9-9-9-9-9-9-9-2-2-2-2-2-2-2-2-2-2-2-2-4-4-4-4-4-4-4-4--|
D|9-9-9-9x--9-9-9-9-9-9-9-9-9-9-9-9-2-2-2-2-2-2-2-2-2-2-2-2-4-4-4-4-4-4-4-4--|
A|6-6-6-6x--7-7-7-7-7-7-7-7-7-7-7-7-0-0-0-0-0-0-0-0-0-0-0-0-2-2-2-2-2-2-2-2--|
D|---------------------------------------------------------------------------|

Verse Cont'd:
e|---------------------------------------------------------------------------|
B|---------------------------------------------------------------------------|
G|4-4-4-4-6-6-6-6-6-6-4-4-4-4-4-4-2-2-2-2-2-2-2-2-2-2-2-2--2-2-2-2-2x--------|
D|4-4-4-4-6-6-6-6-6-6-4-4-4-4-4-4-2-2-2-2-2-2-2-2-2-2-2-2--2-2-2-2-2x--------|
A|2-2-2-2-4-4-4-4-4-4-2-2-2-2-2-2-0-0-0-0-0-0-0-0-0-0-0-0--0-0-0-0-0x--------|
D|---------------------------------------------------------------------------|

Chorus:  "I've got a sure shot..."
e|---------------------------------------------------------------------------|
B|---------------------------------------------------------------------------|
G|------------4-4-x-x-x-x-2-2-x-x-x-x-----------------------2-2-x-x-x-x-6-6--|
D|2-2-x-x-x-x-4-4-x-x-x-x-2-2-x-x-x-x---6-----4-2-2-x-x-x-x-2-2-x-x-x-x-6-6--|
A|2-2-x-x-x-x-2-2-x-x-x-x-0-0-x-x-x-x-4---2-2---2-2-x-x-x-x-0-0-x-x-x-x-4-4--|
D|2-2-x-x-x-x-----------------------------------2-2-x-x-x-x------------------|

Chorus Cont'd:
e|---------------------------------------------------------------------------|
B|---------------------------------------------------------------------------|
G|x-x-x-x-4-4---------------------4-4-x-x-x-x-2-2-x-x-x-x--------------------|
D|x-x-x-x-4-4---------2-2-x-x-x-x-4-4-x-x-x-x-2-2-x-x-x-x---6-----4-2-2-x-x--|
A|x-x-x-x-2-2-2h4p2p0-2-2-x-x-x-x-2-2-x-x-x-x-0-0-x-x-x-x-4---2-2---2-2-x-x--|
D|--------------------2-2-x-x-x-x-----------------------------------2-2-x-x--|

Chorus Cont'd:
e|---------------------------------------------------------------------------|
B|---------------------------------------------------------------------------|
G|----2-2-x-x-x-x-6-6-x-x-x-x-4-4--------------------------------------------|
D|x-x-2-2-x-x-x-x-6-6-x-x-x-x-4-4--------------------------------------------|
A|x-x-0-0-x-x-x-x-4-4-x-x-x-x-2-2-2h4p2--------------------------------------|
D|x-x------------------------------------------------------------------------|

Interlude:  (2x)
e|---------------------------------------------------------------------------|
B|---------------------------------------------------------------------------|
G|2-2-2-2-2-2-2-2-2-2-2-2-2-2-2-2--------------------------------------------|
D|2-2-2-2-2-2-2-2-2-2-2-2-2-2-2-2--------------------------------------------|
A|0-0-0-0-0-0-0-0-0-0-0-0-0-0-0-0--------------------------------------------|
D|---------------------------------------------------------------------------|

2nd Verse:  "Can I face this year..."
e|---------------------------------------------------------------------------|
B|---------------------------------------------------------------------------|
G|2~----6-6-6-6-6-6-2-2-2-2-2-2----------------------------------------------|
D|2~----6-6-6-6-6-6-2-2-2-2-2-2---------------------------------2-2-2-2-2-2-2|
A|0~----4-4-4-4-4-4-0-0-0-0-0-0-2-2-2-2-2-2-2-2-2-2-2-2-2-2-2-2-4-4-4-4-4-4-4|
D|------------------------------2-2-2-2-2-2-2-2-2-2-2-2-2-2-2-2--------------|
                                .............................................

2nd Verse Cont'd:
e|---------------------------------------------------------------------------|
B|---------------------------------------------------------------------------|
G|------------------4-4-4-4-4-4-4-4-4-4-4-4-4-4-4-4-4-4-4-4-4-4-4-4-4-4-4-4-4|
D|2-1-1-1-1-1-1-1-1-1-1-1-1-1-1-1-1-1-1-1-1-1-1-1-1-2-2-2-2-2-2-2-2-2-2-2-2-2|
A|4-4-4-4-4-4-4-4-4----------------------------------------------------------|
D|---------------------------------------------------------------------------|
  ...........................................................................

2nd Verse Cont'd:
e|---------------------------------------------------------------------------|
B|---------------------------------------------------------------------------|
G|2-2-2-2-2-2-2-2-2-2-2-2-4-4-4-4-4-4-4-4-4-4-4-4-6-6-6-6-6-4-4-4-4-4-4-2-2-2|
D|2-2-2-2-2-2-2-2-2-2-2-2-4-4-4-4-4-4-4-4-4-4-4-4-6-6-6-6-6-4-4-4-4-4-4-2-2-2|
A|0-0-0-0-0-0-0-0-0-0-0-0-2-2-2-2-2-2-2-2-2-2-2-2-4-4-4-4-4-2-2-2-2-2-2-0-0-0|
D|---------------------------------------------------------------------------|
  ...   ...   ...   ...   ...   ...   ...   ...

2nd Verse Cont'd:
e|---------------------------------------------------------------------------|
B|---------------------------------------------------------------------------|
G|2-2-2-2-2-2-2-2-2-2-2-2-2--2-2-2-2-2x--------------------------------------|
D|2-2-2-2-2-2-2-2-2-2-2-2-2--2-2-2-2-2x--------------------------------------|
A|0-0-0-0-0-0-0-0-0-0-0-0-0--0-0-0-0-0x--------------------------------------|
D|---------------------------------------------------------------------------|

Build Up:  "My mom and dad..."
e|---------------------------------------------------------------------------|
B|---------------------------------------------------------------------------|
G|----------------------------4-4--4-4-4--4-4-4--4-4-4--4--------------------|
D|2-2--2-2-2--2-2-2--2-2-2--2-4-4--4-4-4--4-4-4--4-4-4--4-2-2--2-2-2--2-2-2--|
A|2-2--2-2-2--2-2-2--2-2-2--2-2-2--2-2-2--2-2-2--2-2-2--2-2-2--2-2-2--2-2-2--|
D|2-2--2-2-2--2-2-2--2-2-2--2-----------------------------2-2--2-2-2--2-2-2--|

Build Up:
e|---------------------------------------------------------------------------|
B|---------------------------------------------------------------------------|
G|---------6-6--6-6-6--6-6-6--6------------------------------4-4-4-4-4-4-4-4-|
D|2-2-2--2-6-6--6-6-6--6-6-6--6------4-4-4-4-4-4-4-4-4-4-4-4-4-4-4-4-4-4-4-4-|
A|2-2-2--2-4-4--4-4-4--4-4-4--4-7-6--4-4-4-4-4-4-4-4-4-4-4-4-2-2-2-2-2-2-2-2-|
D|2-2-2--2----------------------7-6--4-4-4-4-4-4-4-4-4-4-4-4-----------------|

Build Up:
e|---------------------------------------------------------------------------|
B|----------------------------------1~---------------------------------------|
G|4-4-4-4-4-2-2-2-2-2-2-2-2-2-2-2-2-2~---------------------------------------|
D|4-4-4-4-4-2-2-2-2-2-2-2-2-2-2-2-2-2~---------------------------------------|
A|2-2-2-2-2-0-0-0-0-0-0-0-0-0-0-0-0-0~---------------------------------------|
D|---------------------------------------------------------------------------|

Repeat Chorus 2x

Outro:
e|---------------------------------------------------------------------------|
B|---------------------------------------------------------------------------|
G|------------------------4-4-4-4-4-4-4-4-4-4-4-4-2-2-2-2-2-2-2-2-2-2-2-2----|
D|2-2-2-2-2-2-2-2-2-2-2-2-4-4-4-4-4-4-4-4-4-4-4-4-2-2-2-2-2-2-2-2-2-2-2-2----|
A|2-2-2-2-2-2-2-2-2-2-2-2-2-2-2-2-2-2-2-2-2-2-2-2-0-0-0-0-0-0-0-0-0-0-0-0----|
D|2-2-2-2-2-2-2-2-2-2-2-2----------------------------------------------------|

Outro Cont'd:
e|---------------------------------------------------------------------------|
B|---------------------------------------------------------------------------|
G|---------------------------------------------------------------------------|
D|--6-----6---4-----4--------------------------------------------------------|
A|4---4-4---2---2-2----------------------------------------------------------|
D|---------------------------------------------------------------------------|

Outro Cont'd:
e|---------------------------------------------------------------------------|
B|---------------------------------------------------------------------------|
G|------------------------4-4-4-4-4-4-4-4-4-4-4-4-2-2-2-2-2-2-2-2-2-2-2-2----|
D|2-2-2-2-2-2-2-2-2-2-2-2-4-4-4-4-4-4-4-4-4-4-4-4-2-2-2-2-2-2-2-2-2-2-2-2----|
A|2-2-2-2-2-2-2-2-2-2-2-2-2-2-2-2-2-2-2-2-2-2-2-2-0-0-0-0-0-0-0-0-0-0-0-0----|
D|2-2-2-2-2-2-2-2-2-2-2-2----------------------------------------------------|

Outro Cont'd:
e|---------------------------------------------------------------------------|
B|---------------------------------------------------------------------------|
G|---------------------------------------------------------------------------|
D|----6-------4--------------------------------------------------------------|
A|4-4---4-2-2---2-0~---------------------------------------------------------|
D|---------------------------------------------------------------------------|

-----------------
GUITAR 2'S PARTS:
-----------------
Intro:  (3x)                       Last Time:
e|0-0-0-0-0-0-0-0-0-0-0-0-0-0-0-0-|0-0-0-0-0-0-0-0-0-0-0-0-0-0-0-0-----------|
B|5-5-5-5-4-4-0-0-2-2-2-2-0-0-0-0-|5-5-5-5-4-4-4-4-9-9-9-9-7-7-7-7-----------|
G|--------------------------------|------------------------------------------|
D|--------------------------------|------------------------------------------|
A|--------------------------------|------------------------------------------|
D|--------------------------------|------------------------------------------|

Intro Cont'd:
e|0-0-0-0-0-0-0-0-0-0-0-0-0-0-0-0--------------------------------------------|
B|5-5-5-5-4-4-0-0-2-2-2-2-0-0-0-0-----7---7---0-------7---7---0-------9---7--|
G|--------------------------------9-9---9---9---9-9-9---9---9---9-9-9---9----|
D|---------------------------------------------------------------------------|
A|---------------------------------------------------------------------------|
D|---------------------------------------------------------------------------|
                                  ...   .   .   .....   .   .   .....   .
End of Intro:
e|-----------------------0-0-0-0-0-0-0-0-0~----------------------------------|
B|---0-------9---7---0---5-5-5-5-4-4-2-2-0~----------------------------------|
G|-9---9-9-9---9---9---9-----------------------------------------------------|
D|---------------------------------------------------------------------------|
A|---------------------------------------------------------------------------|
D|---------------------------------------------------------------------------|
   .   .....   .   .   .


Verse:  "Can I face this day..."
(on the first chord, it sounds like single note picking
 with all those notes but we can't figure it out.)
e|---------------------------------------------------------------------------|
B|-5~------------------------------------------------------------------------|
G|-2~------9-9-9-9-11-8~----------------------9-9-9-9x--8-8-8-8x-11-11-11-11x|
D|-2~---------------------2-2-2-2x--2-2-2-2x----------------------9--9--9--9x|
A|-0~------7-7-7-7--9-6~--2-2-2-2x--2-2-2-2x--7-7-7-7x--6-6-6-6x-------------|
D|------------------------2-2-2-2x--2-2-2-2x---------------------------------|

Verse Cont'd:
e|---------------------------------------------------------------------------|
B|---------------------------------------------------------------------------|
G|11-11-11-11x-9-9-9-9-9-9-9-9-9-9-9-9-2-2-2-2-2-2-2-2-2-2-2-2-4-4-4-4-4-4-4-|
D|-9--9--9--9x-9-9-9-9-9-9-9-9-9-9-9-9-2-2-2-2-2-2-2-2-2-2-2-2-4-4-4-4-4-4-4-|
A|-------------7-7-7-7-7-7-7-7-7-7-7-7-0-0-0-0-0-0-0-0-0-0-0-0-2-2-2-2-2-2-2-|
D|---------------------------------------------------------------------------|

Verse Cont'd:
e|---------------------------------------------------------------------------|
B|---------------------------------------------------------------------------|
G|4-4-4-4-4-6-6-6-6-6-6-8-8-8-8-8-8-9-9-8-8-9-9-8-8-9-9-8-8-9-9-8-8-9-9-8-8-9|
D|4-4-4-4-4------------------------------------------------------------------|
A|2-2-2-2-2-4-4-4-4-4-4-6-6-6-6-6-6-7-7-6-6-7-7-6-6-7-7-6-6-7-7-6-6-7-7-6-6-7|
D|---------------------------------------------------------------------------|

Chorus:  "I've got a sure shot..."
e|---------------------------------------------------------------------------|
B|---------------------------------------------------------------------------|
G|------------4-4-x-x-x-x-2-2-x-x-x-x-----------------------2-2-x-x-x-x-6-6--|
D|2-2-x-x-x-x-4-4-x-x-x-x-2-2-x-x-x-x---6-----4-2-2-x-x-x-x-2-2-x-x-x-x-6-6--|
A|2-2-x-x-x-x-2-2-x-x-x-x-0-0-x-x-x-x-4---2-2---2-2-x-x-x-x-0-0-x-x-x-x-4-4--|
D|2-2-x-x-x-x-----------------------------------2-2-x-x-x-x------------------|

Chorus Cont'd:
e|---------------------------------------------------------------------------|
B|---------------------------------------------------------------------------|
G|x-x-x-x-4-4-8/9\8/9-------------4-4-x-x-x-x-2-2-x-x-x-x--------------------|
D|x-x-x-x-4-4---------2-2-x-x-x-x-4-4-x-x-x-x-2-2-x-x-x-x---6-----4-2-2-x-x--|
A|x-x-x-x-2-2-6/7\6/7-2-2-x-x-x-x-2-2-x-x-x-x-0-0-x-x-x-x-4---2-2---2-2-x-x--|
D|--------------------2-2-x-x-x-x-----------------------------------2-2-x-x--|

Chorus Cont'd:
e|---------------------------------------------------------------------------|
B|---------------------------------------------------------------------------|
G|----2-2-x-x-x-x-6-6-x-x-x-x-4-4-8/9\8--------------------------------------|
D|x-x-2-2-x-x-x-x-6-6-x-x-x-x-4-4--------------------------------------------|
A|x-x-0-0-x-x-x-x-4-4-x-x-x-x-2-2-6/7\6--------------------------------------|
D|x-x------------------------------------------------------------------------|

Interlude:  (2x)
e|0-0-0-0-0-0-0-0-0-0-0-0-0-0-0-0-|
B|5-5-5-5-4-4-0-0-2-2-2-2-0-0-0-0-|
G|--------------------------------|
D|--------------------------------|
A|--------------------------------|
D|--------------------------------|

2nd Verse:  "Can I face this year..."
e|---------------------------------------------------------------------------|
B|---------------------------------------------------------------------------|
G|2~----6-6-6-6-6-6-2-2-2-2-2-2----------------------------------------------|
D|2~----6-6-6-6-6-6-2-2-2-2-2-2---------------------------------2-2-2-2-2-2-2|
A|0~----4-4-4-4-4-4-0-0-0-0-0-0-2-2-2-2-2-2-2-2-2-2-2-2-2-2-2-2-4-4-4-4-4-4-4|
D|------------------------------2-2-2-2-2-2-2-2-2-2-2-2-2-2-2-2--------------|
                                .............................................

2nd Verse Cont'd:
e|---------------------------------------------------------------------------|
B|---------------------------------------------------------------------------|
G|------------------4-4-4-4-4-4-4-4-4-4-4-4-4-4-4-4-4-4-4-4-4-4-4-4-4-4-4-4-4|
D|2-1-1-1-1-1-1-1-1-1-1-1-1-1-1-1-1-1-1-1-1-1-1-1-1-2-2-2-2-2-2-2-2-2-2-2-2-2|
A|4-4-4-4-4-4-4-4-4----------------------------------------------------------|
D|---------------------------------------------------------------------------|
  ...........................................................................

2nd Verse Cont'd:
e|---------------------------------------------------------------------------|
B|---------------------------------------------------------------------------|
G|2-2-2-2-2-2-2-2-2-2-2-2-4-4-4-4-4-4-4-4-4-4-4-4-6-6-6-6-6-8-8-8-8-8-8-9-9--|
D|2-2-2-2-2-2-2-2-2-2-2-2-4-4-4-4-4-4-4-4-4-4-4-4----------------------------|
A|0-0-0-0-0-0-0-0-0-0-0-0-2-2-2-2-2-2-2-2-2-2-2-2-4-4-4-4-4-6-6-6-6-6-6-7-7--|
D|---------------------------------------------------------------------------|
  ...   ...   ...   ...   ...   ...   ...   ...

2nd Verse Cont'd:
e|---------------------------------------------------------------------------|
B|---------------------------------------------------------------------------|
G|-8-8-9-9-8-8-9-9-8-8-9-9-8-8-9-9-8-8-9x------------------------------------|
D|---------------------------------------------------------------------------|
A|-6-6-7-7-6-6-7-7-6-6-7-7-6-6-7-7-6-6-7x------------------------------------|
D|---------------------------------------------------------------------------|

Build Up:  "My mom and dad..."
e|---------------------------------------------------------------------------|
B|---------------------------------------------------------------------------|
G|----------------------------8-8--8-8-8--8-8-8--8-8-8--8--------------------|
D|2-2--2-2-2--2-2-2--2-2-2--2-----------------------------2-2--2-2-2--2-2-2--|
A|2-2--2-2-2--2-2-2--2-2-2--2-6-6--6-6-6--6-6-6--6-6-6--6-2-2--2-2-2--2-2-2--|
D|2-2--2-2-2--2-2-2--2-2-2--2-----------------------------2-2--2-2-2--2-2-2--|

Build Up:
e|---------------------------------------------------------------------------|
B|---------------------------------------------------------------------------|
G|---------13-13--13-13-13--13-13-13--11--9--9--------------------------4-4-4|
D|2-2-2--2--------------------------------------4-4-4-4-4-4-4-4-4-4-4-4-4-4-4|
A|2-2-2--2-11-11--11-11-11--11-11-11---9--7--7--4-4-4-4-4-4-4-4-4-4-4-4-2-2-2|
D|2-2-2--2--------------------------------------4-4-4-4-4-4-4-4-4-4-4-4------|

Build Up:
e|---------------------------------------------------------------------------|
B|---------------------------------------------------------------------------|
G|4-4-4-4-4-4-4-4-4-4-4-4-4-2-2-2-2-2-2-2-2-2-2-2-2-5-7-9-11-9~--------------|
D|4-4-4-4-4-4-4-4-4-4-4-4-4-2-2-2-2-2-2-2-2-2-2-2-2--------------------------|
A|2-2-2-2-2-2-2-2-2-2-2-2-2-0-0-0-0-0-0-0-0-0-0-0-0-3-5-7--9-7~--------------|
D|---------------------------------------------------------------------------|

Repeat Chorus 2x

Outro:
 Repeat Guitar 2 Interlude (7x)
 then play this-
e|-----4-------2---0~--------------------------------------------------------|
B|---5---5---4---4-0~--------------------------------------------------------|
G|-6-------4-------2~--------------------------------------------------------|
D|---------------------------------------------------------------------------|
A|---------------------------------------------------------------------------|
D|---------------------------------------------------------------------------|


------------------------------------------------------------------------------
6. Big Apple Heartbreak
------------------------------------------------------------------------------

Drop D Tuning

Intro (x2) clean
e:----------2-------------2--------------------------------------|
B:-------3----3---3-----3---3---3-----3--3-3-3~------------------|
G:--4-4--4------4---3-3-3-----3-------2--2-2-2~------------------|
D:--------------------------------0-0------------0-0-0-0---------|
A:-------------------------------------------------------4-4-0-0-|
D:---------------------------------------------------------------|
        This can't be home anymore

e:----------2--------------2-------------------------------------|
B:-------3----3---3-----3----3---3-------------------------------|
G:--4-4--4------4---3-3-3------3---------------------------------|
D:---------------------------------------------------------------|
A:-----------------------------------0-------pick slide----------|
D:-----------------------------------0---------------------------|
         This can't be home       anymore
                                     (distortion)

  Pre-Verse (x2) distortion
  (guitar 1)
e:---------------------------------------------------------------|
B:---------------------------------------------------------------|
G:---------------------------------------------------------------|
D:--------4-4-4--4----------------------------------5-5-5--5-----|
A:--------5-5-5--5----------------------------------5-5-5--5-----|
D:-0--0--------------0-0-0--0----0-0-7--4--0--5-5----------------|

  (guitar 2)
e:---------------------------------------------------------------|
B:---------------------------------------------------------------|
G:---------------------------------------------------------------|
D:-------------------------------0-0-2--0--4---------------------|
A:---------------------------------------------------------------|
D:--------------------------------------------5-5----------------|

  (guitar 1)
e:---------------------------------------------------------------|
B:---------------------------------------------------------------|
G:---------------------------------------------------------------|
D:---------------------------------------------------------------|
A:-----------------------4---------------------------------------|
D:-5-5-5--5----5-5-5--7-----7------------------------------------|

  (guitar 2)
e:---------------------------------------------------------------|
B:---------------------------------------------------------------|
G:---------------------------------------------------------------|
D:-----------------------4---------------------------------------|
A:-------------5-5-4--5------------------------------------------|
D:---------------------------------------------------------------|

  Verse (x4) clean
e:----------------------------------------------------------------|
B:----------------------------------------------------------------|
G:----7-----7---7-----7-----7---7-----7-----7---7-----7-----6---6-|
D:--7-----7---7-----7-----7---7-----7-----7---7-----7-----7---7---|
A:5-----5---------4-----4-----------------------------------------|
D:--------------------------------5-----5---------7-----7---------|
           If you          think I               have not been
  missing the way          she breathes          you are
  mistaken my friend I'm fallin down             so put your
  mouth on my bloody ????

  Chorus part 1 (x2) distortion
e:----------------------------------------------------------------|
B:----------------------------------------------------------------|
G:----------------------------------------------------------------|
D:----------------------------------------------------------------|
A:5-5-5-5-5-5-5-5-5-5-5-5-5-5-5-5-7-7-7-7-7-7-7-7-0-0-0-0-0-0-0-0-|
D:4-4-4-4-4-4-4-4-5-5-5-5-5-5-5-5-7-7-7-7-7-7-7-7-0-0-0-0-0-0-0-0-|
      One night with me and I've broken your trust
      I hate to be the one you know is gonna bust

  Chorus part 2
e:---------------------------------------------------------------|
B:---------------------------------------------------------------|
G:---------------------------------------------------------------|
D:---------------------------------------------------------------|
A:5-5-5-5-5-5-5-5-5-5-5-5-5-5-5-5-7-7-7-7-7-7-7-7----------------|
D:4-4-4-4-4-4-4-4-5-5-5-5-5-5-5-5-7-7-7-7-7-7-7-7----------------|
      Hurting lungs breathing.....

e:---------------------------------------------------------------|
B:---------------------------------------------------------------|
G:---7--7-7-7--7--7--7--7--7-------------------------------------|
D:---7--7-7-7--7--7--7--7--7-------------------------------------|
A:---5--5-5-5--5--5--5--5--5-------------------------------------|
D:---------------------------------------------------------------|
  pm ............      ...
     sighs of disgust

e:---------------------------------------------------------------|
B:---------------------------------------------------------------|
G:---------------------------------------------------------------|
D:-------------0-0-------------0-0-------------------------------|
A:-2-2-2-4-4-4-----1-1-1-4-4-4---------5---4---2-------5---4---0-|
D:---------------------------------0-0---0---0---0-0-0---0---0---|

  repeat intro (x2) w/out pick slide

  Verse with distortion
e:----------------------------------------------------------------|
B:----------------------------------------------------------------|
G:7-7-7-7-7-7-7-7-7-7-7-7-7-7-7-7---------------------------------|
D:7-7-7-7-7-7-7-7-7-7-7-7-7-7-7-7-5-5-5-5-5-5-5-5-7-7-7-7-7-7-7-7-|
A:5-5-5-5-5-5-5-5-4-4-4-4-4-4-4-4-5-5-5-5-5-5-5-5-7-7-7-7-7-7-7-7-|
D:--------------------------------5-5-5-5-5-5-5-5-7-7-7-7-7-7-7-7-|
pm.... ..... ..   .... ..... ..   .... ..... ..   .... ..... ..
            now cold       concrete               blank walls are

e:---------------------------------------------------------------|
B:---------------------------------------------------------------|
G:7-7-7-7-7-7-7-7-7-7-7-7-7-7-7-7--------------------------------|
D:7-7-7-7-7-7-7-7-7-7-7-7-7-7-7-7-5-5-5-5-5-5-5-5-7x-------------|
A:5-5-5-5-5-5-5-5-4-4-4-4-4-4-4-4-5-5-5-5-5-5-5-5-7x-------------|
D:--------------------------------5-5-5-5-5-5-5-5-7x--------12/--|
pm.... ..... ..   .... ..... ..   .... ..... ..
  staring       into your lonely             eyes    I duck behind

e:----------------------------------------------------------------|
B:----------------------------------------------------------------|
G:7-7-7-7-7-7-7-7-7-7-7-7-7-7-7-7---------------------------------|
D:7-7-7-7-7-7-7-7-7-7-7-7-7-7-7-7-5-5-5-5-5-5-5-5-9-7-7-7-7-7-7-9-|
A:5-5-5-5-5-5-5-5-4-4-4-4-4-4-4-4-5-5-5-5-5-5-5-5-9-7-7-7-7-7-7-9-|
D:--------------------------------5-5-5-5-5-5-5-5-9-7-7-7-7-7-7-9-|
  them and hope that you won't go                    And ask for

e:----------------------------------------------------------------|
B:----------------------------------------------------------------|
G:----------------------------------------------------------------|
D:0-0-0-0-0-0-0-0-2-2-2-2-2-2-2-2-4-4-4-4-4-4-4-4-7-7-7-7-7-7-7-5-|
A:----------------------------------------------------------------|
D:----------------------------------------------------------------|
  answers to why I made you cry

e:---------------------------------------------------------------|
B:---------------------------------------------------------------|
G:---------------------------------------------------------------|
D:--4~ (let ring into next part----------------------------------|
A:---------------------------------------------------------------|
D:---------------------------------------------------------------|

  Repeat Guitar 1 Pre Verse (x3) w/out distortion
    I never wanted us to fade out
    lasting on a love that fell apart
    Where are you? I need you
    You still have, still have my heart

  Repeat Pre verse (x3) with distortion
   same lyrics as above

  Repeat Chorus (parts 1 and 2)

  Repeat Intro (x2)

  Interlude
  Guitar 1
e:---------------------------------------------------------------|
B:---------------------------------------------------------------|
G:---------------------------------------------------------------|
D:-------------------------------------------------------(x3)----|
A:-5--5--5-5--5-5--5--5-5--5-5--5--5-5--5-5--5--5-5--5-----------|
D:-4--4--4-4--4-4--4--4-4--4-5--5--5-5--5-5--5--5-5--5-----------|
 pm...................................................

  Guitar 2 (listen to song for when to come in)
e:---------------------------------------------------------------|
B:-------------------8-7--7-7h8h7--------------------------------|
G:--7--7--9--7-7--7----------------------------------------------|
D:--7--7-----7-7--5----------------------------------------------|
A:---------------------------------------------------------------|
D:---------------------------------------------------------------|

  Guitar 1
e:---------------------------------------------------------------|
B:---------------------------------------------------------------|
G:---------------------------------------------------------------|
D:---------------------------------------------------------------|
A:-5--5--5-5--5-5--5--5-5--5--5--5x----------5--5x---------------|
D:-4--4--4-4--4-4--4--4-4--4--5--5x----------5--5x---------------|
 pm.........................

  Guitar 2
e:-------------------------------------------5--5---5h7p5--------|
B:---------------------------------------------------------------|
G:----------------------------7--7---7h9p7-----------------------|
D:---------------------------------------------------------------|
A:---------------------------------------------------------------|
D:---------------------------------------------------------------|

  Outro
  Guitar 1 (x3)
e:---------------------------------------------------------------|
B:---------------------------------------------------------------|
G:---------------------------------------------------------------|
D:---------------------------------------------------------------|
A:--0--0--0--0--0--0--0--0--5--5--5--5--5--5--5--5---------------|
D:--0--0--0--0--0--0--0--0--5--5--5--5--5--5--5--5---------------|
   Open up my heart
   Open up my heart
   Open up my heart

  Guitar1
e:---------------------------------------------------------------|
B:---------------------------------------------------------------|
G:---------------------------------------------------------------|
D:--0--0--0--0--0--0--0--0--5x------------------------------0-0x-|
A:--0--0--0--0--0--0--0--0--5x------------------------------0-0x-|
D:---------------------------------------------------------------|
   Open up my hea-                                          -rt

  Guitar 2 (solo during outro)
e:---------------------------------------------------------------|
B:--10----------------10----------10-----------------------------|
G:------12--11------------12--11-----12-11-12-11h12p11-----------|
D:--------------12-----------------------------------------------|
A:---------------------------------------------------------------|
D:---------------------------------------------------------------|

e:---------------------------------------------------------------|
B:--10----------------10h12p10-----------------------------------|
G:------12--11------------------12--11---------------------------|
D:--------------12----------------------12x----------------------|
A:---------------------------------------------------------------|
D:----------------------------------------------------------0-0x-|

-----------------------------------------------------------------
7. Cigarette
-----------------------------------------------------------------


Drop D Tuning

INTRO/VERSE:
e|-------------------------|
B|-------------------------|
G|--7->-6->-7->-2->-4>0>2--|
D|--0->-0->-0->-0->-0>4>0--|
A|--0->-x->-x->-x->-x>x>0--|
D|--0->-7->-9->-4->-5>5>0--|

e|-------------------------|
B|--------------7->-5->-7--|
G|--7->-6->-7->-7->-6->-7--|
D|--0->-0->-0->-7->-7->-7--|
A|--0->-x->-x->-5->-4-/-5--|
D|--0->-7->-9->-0->-0->-0--|

PRE-CHORUS:                   *Add this just before chorus
e|------------------2->----|-----|
B|------------------3->----|--7--|
G|--7->-7->-7->-7->-4->-7--|--7--|
D|--7->-8->-7->-8->-4->-5--|--5--|
A|--9->-10>-9->-10>-2->-5--|--5--|
D|--0->-0->-0->-0->-----5--|--5--|

CHORUS: x2                    *Add this to the first part
                              of the chorus
e|----------2->---------0--|--0--|
B|--7->-5->-3->---------2--|--2--|
G|--7->-6->-4->-7->-7->-2--|--0--|
D|--7->-7->-4->-5->-4->-2--|--2--|
A|--5->-4->-2->-5->-5->-0--|--0--|
D|--0->-0->-----5->-4->----|-----|


INTERLUDE: Same as INTRO/VERSE

VERSE


BRIDGE: Guitar 1
e|------0->---|
B|------2->5--|
G|--7->-2->6--| x2
D|--5->-2->7--|
A|--5->-0->4--|
D|--5->----0--|
	Guitar 2
e|------0-----|
B|------2->5--|
G|--7->-2->2--| x2
D|--5->-2->2--|
A|--5->-0->0--|
D|--5->-------|


PRE-CHORUS

CHORUS

PRE-CHORUS

END ON:
e|-----|
B|--7--|
G|--7--|
D|--7--|
A|--9--|
D|--0--|

-----------------------------------------------------------------------------
8. October Nights
-----------------------------------------------------------------------------

Drop D Tuning

GUITAR 1'S PARTS
----------------
Intro:
e|---------------------------------------------------------------------------|
B|---------------------------------------------------------------------------|
G|---------------------------------------------------------------------------|
D|---------------------------------------------------------------------------|
A|------------------------*-*-*-*-*--*----*-----*----*---*-------------------|
D|0-0-0-0-0-0-0-0-0-0-0-0-5-5-5-5-5--5~---7~---12~---5~--7~------------------|

Intro Cont'd:
e|---------------------------------------------------------------------------|
B|---------------------------------------------------------------------------|
G|7-7-7-7-7-7-7-7-7-7-7-7--7-7-7-7-7-7-7-7-7-7-7-7--7-7-7-7-7-7-7-7-7-7-7-7--|
D|x-x-x-x-x-x-x-x-x-x-x-x--x-x-x-x-x-x-x-x-x-x-x-x--x-x-x-x-x-x-x-x-x-x-x-x--|
A|5-5-5-5-5-5-5-5-5-5-5-5--5-5-5-5-5-5-5-5-5-5-5-5--5-5-5-5-5-5-5-5-5-5-5-5--|
D|---------------------------------------------------------------------------|
    .   .   .   .            .   .   .   .            .   .   .   .

Intro Cont'd:
e|--------------------------------------------------------------------------------|
B|----------------------(Just keep doing this octave til the verse)---------------|
G|7-7-7-7-7-7-7-7-7x-------7>--------------------------------------------------|
D|x-x-x-x-x-x-x-x-x--------x------------------------------------------------------|
A|5-5-5-5-5-5-5-5-5x-------5>--------------------------------------------------|
D|--------------------------------------------------------------------------------|
    .   .   .   .

Verse:  "Warm October nights..."
e|---------------------------------------------------------------------------|
B|---------------------------------------------------------------------------|
G|----6~------------------4-4-4-4-4-4-7-7-7-7-7-7----------------------------|
D|0~--x---5~--5~--5-5-5-5-4-4-4-4-4-4-7-7-7-7-7-7-5-5-5-5-5-5-5-5-5-5-5-5----|
A|0~--4~--5~--5~--5-5-5-5-2-2-2-2-2-2-4-4-4-4-4-4-5-5-5-5-5-5-5-5-5-5-5-5----|
D|0~------5~--4~--4-4-4-4-------------------------4-4-4-4-4-4-5-5-5-5-5-5----|
                  ...........   ...   ...   ...   ...   ...   ...   ...

Verse Cont'd:
e|---------------------------------------------------------------------------|
B|---------------------------------------------------------------------------|
G|4-4--4-4-4-------------4-4--4-4-4------------------------------------------|
D|4-4--4-4-4-2-2-2-2-2-2-4-4--4-4-4-2-2-2-2-2-2-5-5-5--5-5-5-5-5-5--5-5-5-0-0|
A|2-2--2-2-2-2-2-2-2-2-2-2-2--2-2-2-2-2-2-2-2-2-5-5-5--5-5-5-5-5-5--5-5-5-0-0|
D|-----------2-2-2-2-2-2------------2-2-2-2-2-2-4-4-4--4-4-4-5-5-5--5-5-5-0-0|
       .....                  .....             .............................

Verse Cont'd:
e|---------------------------------------------------------------------------|
B|---------------------------------------------------------------------------|
G|---------------------------------------------------------------------------|
D|0--0-0-0-0-0-0-------5-5-5-5-5-5-5-5-5-5-5-5-5-5-5-5-0-0-0-0-0-0-0-0-0-0-0-|
A|0--0-0-0-0-0-0-------5-5-5-5-5-5-5-5-5-5-5-5-5-5-5-5-0-0-0-0-0-0-0-0-0-0-0-|
D|0--0-0-0-0-0-0--12/--4-4-4-4-4-4-4-4-5-5-5-5-5-5-5-5-0-0-0-0-0-0-0-0-0-0-0-|
  ..............

Verse Cont'd:
e|---------------------------------------------------------------------------|
B|---------------------------------------------------------------------------|
G|---------------------------------------------------------------------------|
D|0-0-0-0-0-5-5-5--5-5-5-5-5-5--5-5-5-0-0-0--0-0-0-0-0-0-------5-5-5-5-5-5-5-|
A|0-0-0-0-0-5-5-5--5-5-5-5-5-5--5-5-5-0-0-0--0-0-0-0-0-0-------5-5-5-5-5-5-5-|
D|0-0-0-0-0-4-4-4--4-4-4-5-5-5--5-5-5-0-0-0--0-0-0-0-0-0--12/--4-4-4-4-4-4-4-|
            ............................................

Verse Cont'd:
e|---------------------------------------------------------------------------|
B|---------------------------------------------------------------------------|
G|----------------4-4-4-4-4-4-4-2~----2h4p2----------------------------------|
D|5-5-5-5-5-5-5-5-4-4-4-4-4-4-4-2~----------4-5------------------------------|
A|5-5-5-5-5-5-5-5-2-2-2-2-2-2-2-0~-------------------------------------------|
D|5-5-5-5-5-5-5-5------------------------------------------------------------|

Chorus:  "Tear me off a piece of..."  (3x)
e|---------------------------------------------------------------------------|
B|---------------------------------------------------------------------------|
G|---------------------------------------------------------------------------|
D|5-5-5--5-5--5-5-5-5-0-0-0-0-0-0-0-0-0-0-0-0--------------------------------|
A|5-5-5--5-5--5-5-5-5-0-0-0-0-0-0-0-0-0-0-0-0--------------------------------|
D|5-5-5--5-5--5-5-5-5-0-0-0-0-0-0-0-0-0-0-0-0--------------------------------|
              .......

Chorus Cont'd:  (4th time)
e|---------------------------------------------------------------------------|
B|---------------------------------------------------------------------------|
G|---------------------------------------------------------------------------|
D|5-5-5--5-5--5-5-5-5-0-0-0-0-0-7-7-7-7-7-7----------------------------------|
A|5-5-5--5-5--5-5-5-5-0-0-0-0-0-4-4-4-4-4-4----------------------------------|
D|5-5-5--5-5--5-5-5-5-0-0-0-0-0----------------------------------------------|
              .......

Interlude:
e|---------------------------------------------------------------------------|
B|---------------------------------------------------------------------------|
G|4-4-6-6-7-7x--7-6---6-7-6----4-4-6-6----------------------4-4-6-6-7-7x-----|
D|4-4-6-6-7-7x------9-------7--4-4-6-6-5-5x-----------------4-4-6-6-7-7x-----|
A|2-2-4-4-5-5x-----------------2-2-4-4-5-5x--5-4---4-5-4----2-2-4-4-5-5x-----|
D|-------------------------------------5-5x------7-------7-------------------|
                                             .............

Interlude Cont'd:
e|---------------------------------------------------------------------------|
B|---------------------------------------------------------------------------|
G|7-6---6-7-6----4-4-6-6-----------------------------------------------------|
D|----9-------7--4-4-6-6-5-5x------------------------------------------------|
A|---------------2-2-4-4-5-5x--5-4---4-5-4----5-4---4-5-4--------------------|
D|-----------------------5-5x------7-------7------7-------7------------------|
                               ............................


Next Part:  "I wish the sun would hide it's..."
e|---------------------------------------------------------------------------|
B|---------------------------------------------------------------------------|
G|---------------------------------------------------------------------------|
D|4-4x---4-4-4-4-4-------------------------------------------------7---------|
A|2-2x---2-2-2-2-2-2-2x--2-2-2-2-2-5-5x--5-5-5-5-5-5-5x--5-5-5-5-5-----------|
D|-----------------2-2x--2-2-2-2-2-4-4x--4-4-4-4-4-5-5x--5-5-5-5-5-----------|
  ................................................................

Next Part Cont'd:
e|---------------------------------------------------------------------------|
B|---------------------------------------------------------------------------|
G|---------------------------------------------------------------------------|
D|4-4x---4-4-4-4-4-------------------------------------------------7--4~-----|
A|2-2x---2-2-2-2-2-2-2x--2-2-2-2-2-5-5x--5-5-5-5-5-5-5x--5-5-5-5-5-----------|
D|-----------------2-2x--2-2-2-2-2-4-4x--4-4-4-4-4-5-5x--5-5-5-5-5-----------|
  ................................................................

Next Part Cont'd:  "I wanna watch you dream..."
e|---------------------------------------------------------------------------|
B|---------------------------------------------------------------------------|
G|---------------------------------------------------------------------------|
D|---------------------------------------------------------------------------|
A|5h7-5~-----5h7-5~---5-5-5x-------------------------------------------------|
D|--------------------5-5-5x-------------------------------------------------|
                      ......

Next Part Cont'd:  "I wanna watch you dream..."  (4x)
e|---------------------------------------------------------------------------|
B|---------------------------------------------------------------------------|
G|---------------------------------------------------------------------------|
D|0-0-0-0-0-0-0-0-5-5-5-5-5-5-5-5--------------------------------------------|
A|0-0-0-0-0-0-0-0-5-5-5-5-5-5-5-5--------------------------------------------|
D|0-0-0-0-0-0-0-0-5-5-5-5-5-5-5-5--------------------------------------------|

Next Part Cont'd:  "I wanna watch you dream..."  (4x)
e|---------------------------------------------------------------------------|
B|---------------------------------------------------------------------------|
G|---------------------------------------------------------------------------|
D|5-5-5x--5-5-5-5-5-5x--5-5-5------------------------------------------------|
A|5-5-5x--5-5-5-5-5-5x--5-5-5------------------------------------------------|
D|4-4-4x--4-4-4-5-5-5x--5-5-5------------------------------------------------|

Part After That:
e|---------------------------------------------------------------------------|
B|---------------------------------------------------------------------------|
G|7-7-7-7-7-7-7-7-7-7-7-7--7-7-7-7-7-7-7-7-7-7-7-7--7-7-7-7-7-7-7-7-7-7-7-7--|
D|x-x-x-x-x-x-x-x-x-x-x-x--x-x-x-x-x-x-x-x-x-x-x-x--x-x-x-x-x-x-x-x-x-x-x-x--|
A|5-5-5-5-5-5-5-5-5-5-5-5--5-5-5-5-5-5-5-5-5-5-5-5--5-5-5-5-5-5-5-5-5-5-5-5--|
D|---------------------------------------------------------------------------|
    .   .   .   .            .   .   .   .            .   .   .   .

Part After That Cont'd:
e|---------------------------------------------------------------------------|
B|---------------------------------------------------------------------------|
G|7-7-7-7-7-7-7-7-2h4p2------------------------------------------------------|
D|x-x-x-x-x-x-x-x-------4-5--------------------------------------------------|
A|5-5-5-5-5-5-5-5------------------------------------------------------------|
D|---------------------------------------------------------------------------|
    .   .   .   .

Repeat Chorus
4th Time of Chorus:
e|---------------------------------------------------------------------------|
B|---------------------------------------------------------------------------|
G|--------------------7-7-7-7-7----------------------------------------------|
D|5-5-5--5-5--5-5-5-5-7-7-7-7-7-7-7-7-7-7-7----------------------------------|
A|5-5-5--5-5--5-5-5-5-5-5-5-5-5-7-7-7-7-7-7----------------------------------|
D|5-5-5--5-5--5-5-5-5-----------7-7-7-7-7-7----------------------------------|
              .......

Outro:
e|---------------------------------------------------------------------------|
B|---------------------------------------------------------------------------|
G|---------------------------------------------------------------------------|
D|0-0-0-0-0-0-0-0-0-0-0-0-0-0-0-0-7-7-7-7-7-7-7-7-7-7-7-7-7-7-7-7-5-5-5-5-5-5|
A|0-0-0-0-0-0-0-0-0-0-0-0-0-0-0-0-7-7-7-7-7-7-7-7-7-7-7-7-7-7-7-7-5-5-5-5-5-5|
D|0-0-0-0-0-0-0-0-0-0-0-0-0-0-0-0-7-7-7-7-7-7-7-7-7-7-7-7-7-7-7-7-5-5-5-5-5-5|

Outro Cont'd:
e|---------------------------------------------------------------------------|
B|---------------------------------------------------------------------------|
G|---------------------------------------------------------------------------|
D|5-5-5-5-5-5-5-5-5-5-9-9-9-9-9-9-9-9-5-5-5-5-5-5-5-5-0-0-0-0-0-0-0-0-0-0-0-0|
A|5-5-5-5-5-5-5-5-5-5-9-9-9-9-9-9-9-9-5-5-5-5-5-5-5-5-0-0-0-0-0-0-0-0-0-0-0-0|
D|5-5-5-5-5-5-5-5-5-5-9-9-9-9-9-9-9-9-5-5-5-5-5-5-5-5-0-0-0-0-0-0-0-0-0-0-0-0|
                                                        ...   ...   ...   ...

Outro Cont'd:
e|---------------------------------------------------------------------------|
B|---------------------------------------------------------------------------|
G|------------------------------------------------7-7-7-7-7-7-7-7-7-7-7-7-7x-|
D|7-7-7-7-7-7-7-7-7-7-7-7-5-5-5-5-5-5-5-5-5-5-5-5-x-x-x-x-x-x-x-x-x-x-x-x-x--|
A|7-7-7-7-7-7-7-7-7-7-7-7-5-5-5-5-5-5-5-5-5-5-5-5-5-5-5-5-5-5-5-5-5-5-5-5-5x-|
D|7-7-7-7-7-7-7-7-7-7-7-7-5-5-5-5-5-5-5-5-5-5-5-5----------------------------|
    ...   ...   ...   ...   ...   ...   ...   ...   ...   ...   ...   ...

GUITAR 2'S PARTS:
-----------------
Intro:  (4x)  Clean Guitar
e|---------------------------------------------------------------------------|
B|---------------------------------------------------------------------------|
G|-11-11/12\11-11/12\11-11/12\11---7-7-7-------------------------------------|
D|--x--x--x--x--x--x--x--x--x--x---x-x-x-------------------------------------|
A|--9--9/10\-9--9/10\-9--9/10\-9---5-5-5-------------------------------------|
D|---------------------------------------------------------------------------|

Intro Cont'd:  (3x)
e|:-------------------------------------|------------------------------------|
B|:-------------------------------------|--(on-4th-time)---------------------|
G|:11-11/12\11-11/12\11-11/12\11--7-7-7-|-11-11/12\11-11/12\11-11/12\11------|
D|:-x--x--x--x--x--x--x--x--x--x--x-x-x-|--x--x--x--x--x--x--x--x--x--x------|
A|:-9--9/10\-9--9/10\-9--9/10\-9--5-5-5-|--9--9/10\-9--9/10\-9--9/10\-9------|
D|:-------------------------------------|------------------------------------|

Intro Cont'd:
e|---------------------------------------------------------------------------|
B|---------------------------------------------------------------------------|
G|---------------------------------------------------------------------------|
D|0-0-0-0-0-0-0-0-0-0-0-0-0-0-0-0-7-7-7-7-7-7-7-7-7-7-7-7-7-7-7-7-5-5-5-5-5-5|
A|0-0-0-0-0-0-0-0-0-0-0-0-0-0-0-0-7-7-7-7-7-7-7-7-7-7-7-7-7-7-7-7-5-5-5-5-5-5|
D|0-0-0-0-0-0-0-0-0-0-0-0-0-0-0-0-7-7-7-7-7-7-7-7-7-7-7-7-7-7-7-7-5-5-5-5-5-5|

Intro Cont'd:
e|---------------------------------------------------------------------------|
B|---------------------------------------------------------------------------|
G|---------------------------------------------------------------------------|
D|5-5-5-5-5-5-5-5-5-5-9-9-9-9-9-9-9-9-5-5-5-5-5-5-5-5------------------------|
A|5-5-5-5-5-5-5-5-5-5-9-9-9-9-9-9-9-9-5-5-5-5-5-5-5-5------------------------|
D|5-5-5-5-5-5-5-5-5-5-9-9-9-9-9-9-9-9-5-5-5-5-5-5-5-5------------------------|

Verse:  "Warm October nights..."
e|---------------------------------------------------------------------------|
B|---------------------------------------------------------------------------|
G|------------------------4-4-4-4-4-4-7-7-7-7-7-7----------------------------|
D|0~--7~--5~--5~--5-5-5-5-4-4-4-4-4-4-7-7-7-7-7-7-5-5-5-5-5-5-5-5-5-5-5-5----|
A|0~--7~--5~--5~--5-5-5-5-2-2-2-2-2-2-4-4-4-4-4-4-5-5-5-5-5-5-5-5-5-5-5-5----|
D|0~--7~--5~--4~--4-4-4-4-------------------------4-4-4-4-4-4-5-5-5-5-5-5----|
                  ...........   ...   ...   ...   ...   ...   ...   ...

Verse Cont'd:
e|---------------------------------------------------------------------------|
B|---------------------------------------------------------------------------|
G|4-4--4-4-4-------------4-4--4-4-4------------------------------------------|
D|4-4--4-4-4-2-2-2-2-2-2-4-4--4-4-4-2-2-2-2-2-2-5-5-5--5-5-5-5-5-5--5-5-5-0-0|
A|2-2--2-2-2-2-2-2-2-2-2-2-2--2-2-2-2-2-2-2-2-2-5-5-5--5-5-5-5-5-5--5-5-5-0-0|
D|-----------2-2-2-2-2-2------------2-2-2-2-2-2-4-4-4--4-4-4-5-5-5--5-5-5-0-0|
       .....                  .....             .............................

Verse Cont'd:
e|---------------------------------------------------------------------------|
B|---------------------------------------------------------------------------|
G|---------------------------------------------------------------------------|
D|0--0-0-0-0-0-0-------5-5-5-5-5-5-5-5-5-5-5-5-5-5-5-5-0-0-0-0-0-0-0-0-0-0-0-|
A|0--0-0-0-0-0-0-------5-5-5-5-5-5-5-5-5-5-5-5-5-5-5-5-0-0-0-0-0-0-0-0-0-0-0-|
D|0--0-0-0-0-0-0--12/--4-4-4-4-4-4-4-4-5-5-5-5-5-5-5-5-0-0-0-0-0-0-0-0-0-0-0-|
  ..............

Verse Cont'd:
e|---------------------------------------------------------------------------|
B|---------------------------------------------------------------------------|
G|---------------------------------------------------------------------------|
D|0-0-0-0-0-5-5-5--5-5-5-5-5-5--5-5-5-0-0-0--0-0-0-0-0-0-------5-5-5-5-5-5-5-|
A|0-0-0-0-0-5-5-5--5-5-5-5-5-5--5-5-5-0-0-0--0-0-0-0-0-0-------5-5-5-5-5-5-5-|
D|0-0-0-0-0-4-4-4--4-4-4-5-5-5--5-5-5-0-0-0--0-0-0-0-0-0--12/--4-4-4-4-4-4-4-|
            ............................................

Verse Cont'd:
e|---------------------------------------------------------------------------|
B|---------------------------------------------------------------------------|
G|----------------4-4-4-4-4-4-4-2~-------------------------------------------|
D|5-5-5-5-5-5-5-5-4-4-4-4-4-4-4-2~--4h5p4------------------------------------|
A|5-5-5-5-5-5-5-5-2-2-2-2-2-2-2-0~--------5-7--------------------------------|
D|5-5-5-5-5-5-5-5------------------------------------------------------------|

Chorus:  (Play same thing as Guitar 1)

Interlude:
e|---------------------------------------------------------------------------|
B|---------------------------------------------------------------------------|
G|4-4-6-6-7-7x--7-6---6-7-6----4-4-6-6----------------------4-4-6-6-7-7x-----|
D|4-4-6-6-7-7x------7-------9--4-4-6-6-5-5x--4-5-4---4------4-4-6-6-7-7x-----|
A|2-2-4-4-5-5x-----------------2-2-4-4-5-5x--------7---7-5--2-2-4-4-5-5x-----|
D|-------------------------------------5-5x----------------------------------|
                                             .............

Interlude Cont'd:
e|---------------------------------------------------------------------------|
B|---------------------------------------------------------------------------|
G|7-6---6-7-6----4-4-6-6-----------------------------------------------------|
D|----9-------7--4-4-6-6-5-5x--4-5-4---4------4-5-4---4----------------------|
A|---------------2-2-4-4-5-5x--------7---7-5--------7---7-5------------------|
D|-----------------------5-5x------------------------------------------------|
                               ............................

Next Part:  "Light will..."  (2x)
e|---------------------------------------------------------------------------|
B|---------------------------------------------------------------------------|
G|----0~------7~------7~------7~---------------------------------------------|
D|--4-------7-------7-------7------------------------------------------------|
A|2-------4-------5-------5--------------------------------------------------|
D|---------------------------------------------------------------------------|

Next Part:  "I wish the sun would hide it's..."
e|---------------------------------------------------------------------------|
B|---------------------------------------------------------------------------|
G|---------------------------------------------------------------------------|
D|4-4x---4-4-4-4-4-------------------------------------------------7\--------|
A|2-2x---2-2-2-2-2-2-2x--2-2-2-2-2-5-5x--5-5-5-5-5-5-5x--5-5-5-5-5-----------|
D|-----------------2-2x--2-2-2-2-2-4-4x--4-4-4-4-4-5-5x--5-5-5-5-5-----------|
  ................................................................

Next Part Cont'd:
e|---------------------------------------------------------------------------|
B|---------------------------------------------------------------------------|
G|---------------------------------------------------------------------------|
D|4-4x---4-4-4-4-4-------------------------------------------------7---------|
A|2-2x---2-2-2-2-2-2-2x--2-2-2-2-2-5-5x--5-5-5-5-5-5-5x--5-5-5-5-5-----5~----|
D|-----------------2-2x--2-2-2-2-2-4-4x--4-4-4-4-4-5-5x--5-5-5-5-5-----------|
  ................................................................

Next Part Cont'd:  "I wanna watch you dream..."
e|---------------------------------------------------------------------------|
B|---------------------------------------------------------------------------|
G|---------------------------------------------------------------------------|
D|4/5\4~----4/5\4~--5-5-5----------------------------------------------------|
A|------------------5-5-5----------------------------------------------------|
D|------------------5-5-5----------------------------------------------------|
                    .....

Next Part Cont'd:  "I wanna watch you dream..."  (4x)
e|---------------------------------------------------------------------------|
B|---------------------------------------------------------------------------|
G|---------------------------------------------------------------------------|
D|0-0-0-0-0-0-0-0-5-5-5-5-5-5-5-5--------------------------------------------|
A|0-0-0-0-0-0-0-0-5-5-5-5-5-5-5-5--------------------------------------------|
D|0-0-0-0-0-0-0-0-5-5-5-5-5-5-5-5--------------------------------------------|

Next Part Cont'd:  "I wanna watch you dream..."  (4x)
e|---------------------------------------------------------------------------|
B|---------------------------------------------------------------------------|
G|---------------------------------------------------------------------------|
D|5-5-5x--5-5-5-5-5-5x--5-5-5------------------------------------------------|
A|5-5-5x--5-5-5-5-5-5x--5-5-5------------------------------------------------|
D|4-4-4x--4-4-4-5-5-5x--5-5-5------------------------------------------------|

Part After That:
e|---------------------------------------------------------------------------|
B|---------------------------------------------------------------------------|
G|---------------------------------------------------------------------------|
D|0-0-0-0-0-0-0-0-0-0-0-0-0-0-0-0-7-7-7-7-7-7-7-7-7-7-7-7-7-7-7-7-5-5-5-5-5-5|
A|0-0-0-0-0-0-0-0-0-0-0-0-0-0-0-0-7-7-7-7-7-7-7-7-7-7-7-7-7-7-7-7-5-5-5-5-5-5|
E|0-0-0-0-0-0-0-0-0-0-0-0-0-0-0-0-7-7-7-7-7-7-7-7-7-7-7-7-7-7-7-7-5-5-5-5-5-5|
    ...   ...   ...   ...           ...   ...   ...   ...           ...   ...

Part After That Cont'd:
e|---------------------------------------------------------------------------|
B|---------------------------------------------------------------------------|
G|---------------------------------------------------------------------------|
D|5-5-5-5-5-5-5-9-9-9-9-9-9-5-5-5-5-4h5p4------------------------------------|
A|5-5-5-5-5-5-5-9-9-9-9-9-9-5-5-5-5-------5-7--------------------------------|
E|5-5-5-5-5-5-5-9-9-9-9-9-9-5-5-5-5------------------------------------------|
    ...           ...   ...   ...

Repeat Chorus
4th Time of Chorus:
e|---------------------------------------------------------------------------|
B|---------------------------------------------------------------------------|
G|--------------------7-7-7-7-7----------------------------------------------|
D|5-5-5--5-5--5-5-5-5-7-7-7-7-7-7-7-7-7-7-7----------------------------------|
A|5-5-5--5-5--5-5-5-5-5-5-5-5-5-7-7-7-7-7-7----------------------------------|
D|5-5-5--5-5--5-5-5-5-----------7-7-7-7-7-7----------------------------------|
              .......

Outro:
e|---------------------------------------------------------------------------|
B|---------------------------------------------------------------------------|
G|---------------------------------------------------------------------------|
D|0-0-0-0-0-0-0-0-0-0-0-0-0-0-0-0-7-7-7-7-7-7-7-7-7-7-7-7-7-7-7-7-5-5-5-5-5-5|
A|0-0-0-0-0-0-0-0-0-0-0-0-0-0-0-0-7-7-7-7-7-7-7-7-7-7-7-7-7-7-7-7-5-5-5-5-5-5|
D|0-0-0-0-0-0-0-0-0-0-0-0-0-0-0-0-7-7-7-7-7-7-7-7-7-7-7-7-7-7-7-7-5-5-5-5-5-5|

Outro Cont'd:
e|---------------------------------------------------------------------------|
B|---------------------------------------------------------------------------|
G|---------------------------------------------------------------------------|
D|5-5-5-5-5-5-5-5-5-5-9-9-9-9-9-9-9-9-5-5-5-5-5-5-5-5-0-0-0-0-0-0-0-0-0-0-0-0|
A|5-5-5-5-5-5-5-5-5-5-9-9-9-9-9-9-9-9-5-5-5-5-5-5-5-5-0-0-0-0-0-0-0-0-0-0-0-0|
D|5-5-5-5-5-5-5-5-5-5-9-9-9-9-9-9-9-9-5-5-5-5-5-5-5-5-0-0-0-0-0-0-0-0-0-0-0-0|
                                                        ...   ...   ...   ...

Outro Cont'd:
e|---------------------------------------------------------------------------|
B|---------------------------------------------------------------------------|
G|---------------------------------------------------------------------------|
D|7-7-7-7-7-7-7-7-7-7-7-7-5-5-5-5-5-5-5-5-5-5-5-5-9-9-9-9-9-9-5-5-5-5-5-5-5x-|
A|7-7-7-7-7-7-7-7-7-7-7-7-5-5-5-5-5-5-5-5-5-5-5-5-9-9-9-9-9-9-5-5-5-5-5-5-5x-|
D|7-7-7-7-7-7-7-7-7-7-7-7-5-5-5-5-5-5-5-5-5-5-5-5-9-9-9-9-9-9-5-5-5-5-5-5-5x-|
    ...   ...   ...   ...   ...   ...   ...   ...   ...   ...   ...   ...

GUITAR 3'S PARTS:
-----------------
Intro:  (From 12 seconds to 21 seconds)
e|---------------------------------------------------------------------------|
B|---------------------------------------------------------------------------|
G|---------------------------------------------------------------------------|
D|0-0-0-0-0-0-0-0-0-0-0-0-0-0-0-0-7-7-7-7-7-7-7-7-7-7-7-7-7-7-7-7-5-5-5-5-5-5|
A|0-0-0-0-0-0-0-0-0-0-0-0-0-0-0-0-7-7-7-7-7-7-7-7-7-7-7-7-7-7-7-7-5-5-5-5-5-5|
E|0-0-0-0-0-0-0-0-0-0-0-0-0-0-0-0-7-7-7-7-7-7-7-7-7-7-7-7-7-7-7-7-5-5-5-5-5-5|
    ...   ...   ...   ...           ...   ...   ...   ...           ...   ...

Intro Cont'd:
e|---------------------------------------------------------------------------|
B|---------------------------------------------------------------------------|
G|--------------------------------------7x-----------------------------------|
D|5-5-5-5-5-5-5-9-9-9-9-9-9-5-5-5-5-5-5-5x-----------------------------------|
A|5-5-5-5-5-5-5-9-9-9-9-9-9-5-5-5-5-5-5-5x-----------------------------------|
E|5-5-5-5-5-5-5-9-9-9-9-9-9-5-5-5-5-5-5-5x-----------------------------------|
    ...           ...   ...   ...   ...

------------------------------------------------------------------------------
9. Rock Star Land
------------------------------------------------------------------------------

Drop D Tuning

GUITAR 1'S PARTS:
------------------
Intro:  Guitar 1  (2x)(Turn volume up and down repeatedly while playing this)
e|---------------------------------------------------------------------------|
B|---------------------------------------------------------------------------|
G|--9--9--9--9--7--7--7--7--5--5--5--5--5--5--5--5--9--9--9--9--12--12--12---|
D|--7--7--7--7--5--5--5--5--3--3--3--3--3--3--3--3--7--7--7--7--10--10--10---|
A|--7--7--7--7--5--5--5--5--3--3--3--3--3--3--3--3--7--7--7--7--10--10--10---|
D|--7--7--7--7--5--5--5--5--3--3--3--3--3--3--3--3--7--7--7--7--10--10--10---|

Intro Cont'd:  Guitar 1
e|---------------------------------------------------------------------------|
B|---------------------------------------------------------------------------|
G|12--7--7--7--7--7--7--7--7--7----------------------------------------------|
D|10--5--5--5--5--5--5--5--5--5----------------------------------------------|
A|10--5--5--5--5--5--5--5--5--5----------------------------------------------|
D|10--5--5--5--5--5--5--5--5--5----------------------------------------------|

Intro Cont'd:  Guitar 1
e|---------------------------------------------------------------------------|
B|---------------------------------------------------------------------------|
G|9~--7~--5~------9~--12~----------------------------------------------------|
D|7~--5~--3~------7~--10~--5-5-5-5-5-5-5-5-5-5-5-5-5-5-5-5-------------------|
A|7~--5~--3~-7-8--7~--10~--5-5-5-5-5-5-5-5-5-5-5-5-5-5-5-5-------------------|
D|7~--5~--3~------7~--10~--5-5-5-5-5-5-5-5-5-5-5-5-5-5-5-5-------------------|
                           ...............................

Intro Cont'd:  Guitar 1
e|---------------------------------------------------------------------------|
B|---------------------------------------------------------------------------|
G|----9-------7-------5---4---5-------9---------12--------7---7---7----------|
D|7-7---7-5-5---5-3-3---3---3---3-7-7---7-10-10----10-5-5---5---5---5--------|
A|---------------------------------------------------------------------------|
D|---------------------------------------------------------------------------|
  ...   .....   .....   .   .   .....   .......    ......   .   .   .

Intro Cont'd:  Guitar 1
e|---------------------------------------------------------------------------|
B|---------------------------------------------------------------------------|
G|----9-------7-------5---4---5-------9---------12----7~---------------------|
D|7-7---7-5-5---5-3-3---3---3---4-7-7---7-10-10----10-5~---------------------|
A|----------------------------------------------------5~---------------------|
D|----------------------------------------------------5~---------------------|
  ...   .....   .....   .   .   .....   .......    ..

Verse:  Guitar 1  "Christmas break of..."  (2x)
e|---------------------------------------------------------------------------|
B|---------------------------------------------------------------------------|
G|9-9-9-9-9-9-9-9-9-9-9-9-9-9-9-9-5-5-5-5-5-5-5-5-5-5-5-5-5-5-5-5------------|
D|7-7-7-7-7-7-7-7-7-7-7-7-7-7-7-7-3-3-3-3-3-3-3-3-3-3-3-3-3-3-3-3-2-2-2-2-2-2|
A|7-7-7-7-7-7-7-7-7-7-7-7-7-7-7-7-3-3-3-3-3-3-3-3-3-3-3-3-3-3-3-3-2-2-2-2-2-2|
D|7-7-7-7-7-7-7-7-7-7-7-7-7-7-7-7-3-3-3-3-3-3-3-3-3-3-3-3-3-3-3-3-2-2-2-2-2-2|

Verse Cont'd:  Guitar 1
e|---------------------------------------------------------------------------|
B|---------------------------------------------------------------------------|
G|--------------------7-7-7-7-7-7-7-7-7-7-7-7-7-7-7-7------------------------|
D|2-2-3-3-3-3-3-3-3-3-5-5-5-5-5-5-5-5-5-5-5-5-5-5-5-5------------------------|
A|2-2-3-3-3-3-3-3-3-3-5-5-5-5-5-5-5-5-5-5-5-5-5-5-5-5------------------------|
D|2-2-3-3-3-3-3-3-3-3-5-5-5-5-5-5-5-5-5-5-5-5-5-5-5-5------------------------|

Verse Cont'd:  Guitar 1  "Carrying just me and Stepanie..."
e|---------------------------------------------------------------------------|
B|---------------------------------------------------------------------------|
G|9-9-9-9-9-9-9-9-9-9-9-9-9-9-9-9-5-5-5-5-5-5-5-5-5-5-5-5-5-5-5-5------------|
D|7-7-7-7-7-7-7-7-7-7-7-7-7-7-7-7-3-3-3-3-3-3-3-3-3-3-3-3-3-3-3-3-2-2-2-2---2|
A|7-7-7-7-7-7-7-7-7-7-7-7-7-7-7-7-3-3-3-3-3-3-3-3-3-3-3-3-3-3-3-3-2-2-2-2---2|
D|7-7-7-7-7-7-7-7-7-7-7-7-7-7-7-7-3-3-3-3-3-3-3-3-3-3-3-3-3-3-3-3-2-2-2-2---2|
                                                                    .....

Verse Cont'd:  Guitar 1
e|---------------------------------------------------------------------------|
B|---------------------------------------------------------------------------|
G|------------------4-4-4-4-4-4/5-5/7-7\5-4----------------------------------|
D|-2--3-3-3-3--3--3-x-x-x-x-x-x-x-x-x-x-x-x----------------------------------|
A|-2--3-3-3-3--3--3-2-2-2-2-2-2/3-3/5-5\3-2----------------------------------|
D|-2--3-3-3-3--3--3----------------------------------------------------------|
        .....

Verse Cont'd:  Guitar 1  "Blazing down that highway..."
e|---------------------------------------------------------------------------|
B|---------------------------------------------------------------------------|
G|9-9-9-9-9-9-9-9-9-9-9-9-9-9-9-9-5-5-5-5-5-5-5-5-5-5-5-5-5-5-5--------------|
D|7-7-7-7-7-7-7-7-7-7-7-7-7-7-7-7-3-3-3-3-3-3-3-3-3-3-3-3-3-3-3--------------|
A|7-7-7-7-7-7-7-7-7-7-7-7-7-7-7-7-3-3-3-3-3-3-3-3-3-3-3-3-3-3-3--------------|
D|7-7-7-7-7-7-7-7-7-7-7-7-7-7-7-7-3-3-3-3-3-3-3-3-3-3-3-3-3-3-3--------------|

Verse Cont'd:  Guitar 1
e|---------------------------------------------------------------------------|
B|----------------D----------------------------------------------------------|
G|----12-10-9-----R-12-10-9-----------12----------12----------12----12----12/|
D|2x----------10x-U---------10--10-10----10-10-10----10-10-10----10----10----|
A|2x--------------M----------------------------------------------------------|
D|2x--------------S----------------------------------------------------------|
                                .....    ........    ........    ..    ..

Pre Chorus:  Guitar 1  (2x)
e|---------------------------------------------------------------------------|
B|----1-----1---------0-----1---0--------------------------------------------|
G|--0-----0-----0---0-----0-------5-5-5--5-5------9-9-9--9/10\9-7-5-5~-------|
D|2-----2-----2---3-----3-----3---5-5-5--5-5-2-3--x-x-x-----x-x-x-x-x--------|
A|--------------------------------3-3-3--3-2-2-3--7-7-7--7/-8\7-5-3-3~-------|
D|-------------------------------------------2-3-----------------------------|
  ...   ...   .   ...   ...   .

Pre Chorus Cont'd:  Guitar 1  "California, a place..."
e|---------------------------------------------------------------------------|
B|---------------------------------------------------------------------------|
G|---------------------------------------------------------------------------|
D|7~--5~--3~----7~--5~--3~---------------------------------------------------|
A|7~--5~--3~----7~--5~--3~---------------------------------------------------|
D|7~--5~--3~----7~--5~--3~---------------------------------------------------|


Chorus:  Guitar 1  "I wanna go there..."
e|---------------------------------------------------------------------------|
B|---------------------------------------------------------------------------|
G|----------------------------------------5-5-5-5-5-5-5-5--------------------|
D|x-x-x-x-3-3-3-3-3-3-3-3-5-5-5-5-5-5-5-5-5-5-5-5-5-5-5-5-7-7-7-7-5-5-5-5----|
A|x-x-x-x-3-3-3-3-3-3-3-3-5-5-5-5-5-5-5-5-3-3-3-3-2-2-2-2-7-7-7-7-5-5-5-5----|
D|x-x-x-x-3-3-3-3-3-3-3-3-5-5-5-5-5-5-5-5-----------------7-7-7-7-5-5-5-5----|
                                          ...   .....   .....   .....   .

Chorus Cont'd:  Guitar 1
e|---------------------------------------------------------------------------|
B|---------------------------------------------------------------------------|
G|---------------------------------------------------------------------------|
D|3-3-3-3-3-3-3-3-3-3-3-3-5-5--5-5-5--5-5--5-5-5-----------------------------|
A|3-3-3-3-3-3-3-3-3-3-3-3-5-5--5-5-5--5-5--5-5-5-----------------------------|
D|3-3-3-3-3-3-3-3-3-3-3-3-5-5--5-5-5--5-5--5-5-5-----------------------------|

Little Fill:  Guitar 1
e|--------------------|
B|--------------------|
G|5-5---5-5-----------|
D|5-5-5-5-5-5---------|
A|3-2-5-3-2-5---------|
D|----5-----5---------|

2nd Verse:  Guitar 1  "Staring up at freeway signs..."
e|---------------------------------------------------------------------------|
B|---------------------------------------------------------------------------|
G|---------------------------------------------------------------------------|
D|7-7-7-7-7-7-7-7-7-7-7-7-7-7-7-7-3-3-3-3-3-3-3-3-3-3-3-3-3-3-3-3-2~--3~--2~-|
A|7-7-7-7-7-7-7-7-7-7-7-7-7-7-7-7-3-3-3-3-3-3-3-3-3-3-3-3-3-3-3-3-2~--3~--2~-|
D|7-7-7-7-7-7-7-7-7-7-7-7-7-7-7-7-3-3-3-3-3-3-3-3-3-3-3-3-3-3-3-3-2~--3~--2~-|

2nd Verse Cont'd:  Guitar 1
e|---------------------------------------------------------------------------|
B|---------------------------------------------------------------------------|
G|----------------4h5-7^p5p4-5~----------------------------------------------|
D|3~--2~--3~--5h7------------------------------------------------------------|
A|3~--2~--3~-----------------------------------------------------------------|
D|3~--2~--3~-----------------------------------------------------------------|

2nd Verse Cont'd:  Guitar 1
e|---------------------------------------------------------------------------|
B|---------------------------------------------------------------------------|
G|---------------------------------------------------------------------------|
D|7-7-7-7-7-7-7-7-7-7-7-7-7-7-7-7-3-3-3-3-3-3-3-3-3-3-3-3-3-3-3-3-2-2-2-2---2|
A|7-7-7-7-7-7-7-7-7-7-7-7-7-7-7-7-3-3-3-3-3-3-3-3-3-3-3-3-3-3-3-3-2-2-2-2---2|
D|7-7-7-7-7-7-7-7-7-7-7-7-7-7-7-7-3-3-3-3-3-3-3-3-3-3-3-3-3-3-3-3-2-2-2-2---2|
                                                                    .....

2nd Verse Cont'd:  Guitar 1
e|---------------------------------------------------------------------------|
B|---------------------------------------------------------------------------|
G|------------------4-4-4-4-4-4/5-5/7-7\5-4----------------------------------|
D|-2--3-3-3-3--3--3-x-x-x-x-x-x-x-x-x-x-x-x----------------------------------|
A|-2--3-3-3-3--3--3-2-2-2-2-2-2/3-3/5-5\3-2----------------------------------|
D|-2--3-3-3-3--3--3----------------------------------------------------------|
        .....

2nd Verse Cont'd:  Guitar 1
e|---------------------------------------------------------------------------|
B|---------------------------------------------------------------------------|
G|---------------------------------------------------------------------------|
D|7-7-7-7-7-7-7-7-7-7-7-7-7-7-7-7-3-3-3-3-3-3-3-3-3-3-3-3-3-3-3-3-2-2-2-2---2|
A|7-7-7-7-7-7-7-7-7-7-7-7-7-7-7-7-3-3-3-3-3-3-3-3-3-3-3-3-3-3-3-3-2-2-2-2---2|
D|7-7-7-7-7-7-7-7-7-7-7-7-7-7-7-7-3-3-3-3-3-3-3-3-3-3-3-3-3-3-3-3-2-2-2-2---2|
                                                                    .....

2nd Verse Cont'd:  Guitar 1
e|---------------------------------------------------------------------------|
B|---------------------------------------------------------------------------|
G|---------------------------------------------------------------------------|
D|-2--3-3-3-3--3--3--5-5-5-5-5-5-5-5-5-5-5-5---------------------------------|
A|-2--3-3-3-3--3--3--5-5-5-5-5-5-5-5-5-5-5-5---------------------------------|
D|-2--3-3-3-3--3--3--5-5-5-5-5-5-5-5-5-5-5-5---------------------------------|
        .....

Repeat 2nd Part of Pre Chorus

Repeat Chorus

Repeat 2nd Part of Pre Chorus(straight thru strumming)

Repeat Chorus

Repeat 1st Part of Pre Chorus 2x then this at the end
e|---------------------------------------------------------------------------|
B|---------------------------------------------------------------------------|
G|5-5---5-5----5-5x--------5~------------------------------------------------|
D|5-5-5-5-5-5--5-5x--5-5x--5~------------------------------------------------|
A|3-2-5-3-2-5--3-3x--5-5x--3~------------------------------------------------|
D|----5-----5--------5-5x----------------------------------------------------|
               ....  ....

GUITAR 2'S PARTS:
------------------
Intro:  Guitar 2  (This is the violin part)
e|---------------------------------------------------------------------------|
B|---------------------------------------------------------------------------|
G|9--12--9--5--9--7--12--5--4------------------------------------------------|
D|x---x--x--x--x--x---x--x--x------------------------------------------------|
A|7--10--7--3--7--5--10--3--2--5---------------------------------------------|
D|-----------------------------5---------------------------------------------|

Intro Cont'd:  Guitar 2
e|---------------------------------------------------------------------------|
B|---------------------------------------------------------------------------|
G|9~--7~--5~------9~--12~----------------------------------------------------|
D|7~--5~--3~------7~--10~--5-5-5-5-5-5-5-5-5-5-5-5-5-5-5-5-------------------|
A|7~--5~--3~------7~--10~--5-5-5-5-5-5-5-5-5-5-5-5-5-5-5-5-------------------|
D|7~--5~--3~------7~--10~--5-5-5-5-5-5-5-5-5-5-5-5-5-5-5-5-------------------|
                           ...............................

Intro Cont'd:  Guitar 2
e|---------------------------------------------------------------------------|
B|---------------------------------------------------------------------------|
G|----5-------4-------4---4---4-----5-------7-------5---4---5----------------|
D|---------------------------------------------------------------------------|
A|0-0---0-----------------------0-0---0-3-3---3------------------------------|
D|--------5-5---5-3-3---3---3-------------------5-5---5---5------------------|
  ...   .....   .....   .   .   ...   .....   .....   .   .

Intro Cont'd:  Guitar 2
e|---------------------------------------------------------------------------|
B|---------------------------------------------------------------------------|
G|----5-------4-------4---4---4-----5-------7--------------------------------|
D|----------------------------------------------5~---------------------------|
A|0-0---0-----------------------0-0---0-3-3---3-5~---------------------------|
D|--------5-5---5-3-3---3---3-------------------5~---------------------------|
  ...   .....   .....   .   .   ...   .....   .

Verse:  Guitar 2  "Christmas break..."  (Play same as guitar 1)

Verse Cont'd:  Guitar 2  After he sings "Blazing down that highway..."
e|---------------------------------------------------------------------------|
B|------------D--------------------------------------------------------------|
G|------------R--------------------------------------------------------------|
D|2x-2-0------U-2-0-----------2-------2-------2---2---2----------------------|
A|2x-----3-0x-M-----3-0x--3-3---3-3-3---3-3-3---3---3------------------------|
D|2x----------S--------------------------------------------------------------|

Pre Chorus:  Guitar 2  (2x)
e|---------------------------------------------------------------------------|
B|---------------------------------------------------------------------------|
G|--------------------------------5-5-5--5-5------5-5-5--5-5-----------------|
D|2-2-2-2-2-2-2-2-3-3-3-3-3-3-3-3-5-5-5--5-5-2-3--5-5-5--5-5-2-3-------------|
A|2-2-2-2-2-2-2-2-3-3-3-3-3-3-3-3-3-3-3--3-2-2-3--3-3-3--3-2-2-3-------------|
D|2-2-2-2-2-2-2-2-3-3-3-3-3-3-3-3------------2-3-------------2-3-------------|

Pre Chorus Cont'd:  Guitar 2  "California, a place..."
e|---------------------------------------------------------------------------|
B|---------------------------------------------------------------------------|
G|---------------------------------------------------------------------------|
D|7~--5~--3~----7~--5~--3~---------------------------------------------------|
A|7~--5~--3~----7~--5~--3~---------------------------------------------------|
D|7~--5~--3~----7~--5~--3~---------------------------------------------------|

Chorus:  Guitar 2  "I wanna go there..."
e|---------------------------------------------------------------------------|
B|---------------------------------------------------------------------------|
G|----------------------------------------5-5-5-5-5-5-5-5--------------------|
D|x-x-x-x-3-3-3-3-3-3-3-3-5-5-5-5-5-5-5-5-5-5-5-5-5-5-5-5-7-7-7-7-5-5-5-5----|
A|x-x-x-x-3-3-3-3-3-3-3-3-5-5-5-5-5-5-5-5-3-3-3-3-2-2-2-2-7-7-7-7-5-5-5-5----|
D|x-x-x-x-3-3-3-3-3-3-3-3-5-5-5-5-5-5-5-5-----------------7-7-7-7-5-5-5-5----|
                                          ...   .....   .....   .....   .

Chorus Cont'd:  Guitar 2
e|---------------------------------------------------------------------------|
B|---------------------------------------------------------------------------|
G|---------------------------------------------------------------------------|
D|3-3-3-3-3-3-3-3-3-3-3-3-5-5--5-5-5--5-5--5-5-5-----------------------------|
A|3-3-3-3-3-3-3-3-3-3-3-3-5-5--5-5-5--5-5--5-5-5-----------------------------|
D|3-3-3-3-3-3-3-3-3-3-3-3-5-5--5-5-5--5-5--5-5-5-----------------------------|

Little Fill:  Guitar 2
e|-----------------|
B|-----------------|
G|5/12-5-10-9-7----|
D|x--x-x--x-x-x----|
A|3/10-3--8-7-5----|
D|-----------------|

2nd Verse:  (Play same as guitar 1)

Repeat 2nd Part of Pre Chorus

Repeat Chorus

Repeat 2nd Part of Pre Chorus(straight thru strumming)

Repeat Chorus

Repeat 1st part of Pre Chorus then end with:
e|---------------------------------------------------------------------------|
B|---------------------------------------------------------------------------|
G|5/12-5-10-9-7--5-5x------5~------------------------------------------------|
D|x--x-x--x-x-x--5-5x-5-5x-5~------------------------------------------------|
A|3/10-3--8-7-5--3-3x-5-5x-3~------------------------------------------------|
D|--------------------5-5x---------------------------------------------------|

------------------------------------------------------------------------------
10. For Pete's Sake
------------------------------------------------------------------------------

Drop D Tuning

INTRO
Guitar 1 (clean)
e:--------5---------------5---------------5---------------5-------|
B:----5-----5---5-----5-----5---5-----5-----5---5-----5-----5---5-|
G:--6---------6-----6---------6-----6---------6-----6---------6---|
D:--------------------------------4-----4---------4-----4---------|
A:0----0----------0-----0-----------------------------------------|
D:----------------------------------------------------------------|

Guitar 1 (clean)
e:--------5---------------5---------------4---------------4-------|
B:----5-----5---5-----5-----5---5-----5-----5---5-----5-----5---5-|
G:--6---------6-----6---------6-----6---------6-----6---------6---|
D:------5---------------5---------------5---------------5---------|
A:7---------------7-----------------------------------------------|
D:--------------------------------0---------------0---------------|

Guitar 1 (clean)
e:--------5---------------5---------------5---------------5-------|
B:----5-----5---5-----5-----5---5-----5-----5---5-----5-----5---5-|
G:--6---------6-----6---------6-----6---------6-----6---------6---|
D:------7--------------7----------------7---------------7---------|
A:0--------------0------------------------------------------------|
D:--------------------------------9---------------9---------------|
Guitar 2 (distorted)
e:---------------------------------------------------------------|
B:---------------------------------------------------------------|
G:-2--2----------------------------------------------------------|
D:-2--2----------------------------------------------------------|
A:-0--0----------------------------------------------------------|
D:---------------------------------------------------------------|

Guitar 1 (clean)
e:--------4---------------4--------------------------------------|
B:----5-----5---5-----5-----5---5--(distortion)------------------|
G:--6---------6-----6---------6----4-4-4-4-4-4-4-4-4-4-4-4-4-4-4-|
D:------7---------------7----------6-6-6-6-6-6-6-6-6-6-6-6-6-6-6-|
A:---------------------------------------------------------------|
D:0---------------0----------------------------------------------|
                                pm..............................

PRE-VERSE (part 1)
Guitar 1
e:----------------------------|-4th time-------------------------|
B:-----------(x3)-------------|----------------------------------|
G:--2--2--------------7--6/7--|--2--2--7--7----------------------|
D:--2--2----------------------|--2--2--7--7----------------------|
A:--0--0--2--2--0--0--5--4/5--|--0--0--5--5--4--2----------------|
D:--------2--2--0--0----------|--------------4--2----------------|
Guitar 2
e:----------------------------|----------------------------------|
B:-------5--------------------|-----5----------------------------|
G:-6-7-6---6-7-6--------------|-6-7----7--6----------------------|
D:---------------7------------|--------------7-------------------|
A:------(x6)------------------|-----------------7----------------|
D:----------------------------|----------------------------------|

PRE-VERSE (part 2)
Guitar 1 (x4)
e:---------------------------------------------------------------|
B:--0--0----0--3--2----0-----------------------------------------|
G:--2--2----2--2--2----2-----------------------------------------|
D:---------------------------------------------------------------|
A:---------------------------------------------------------------|
D:---------------------------------------------------------------|

VERSE
e:---------------------------------------------------------------|
B:---------------------------------------------------------------|
G:-2~------------------------------------------------------------|
D:-2~------------------------------------------------------------|
A:-0~-----------------------4~-----------------------------------|
D:--------------------------4~-----------------------------------|
     So I'm left wondering     There is so much more I wish.....
e:---------------------------------------------------------------|
B:---------------------------------------------------------------|
G:---------------------------------------------------------------|
D:---------------------------------------------------------------|
A:-2~-----------0-0--0-0-0--0-0-0--0-0-0--0----------------------|
D:-2~-----------0-0--0-0-0--0-0-0--0-0-0--0----------------------|
             pm............................
     Silence I keep
e:---------------------------------------------------------------|
B:---------------------------------------------------------------|
G:-2-2--2-2-2--2-2-2--2-2-2--2-4-4--4-4-4--4-4-4--4-4-4--4-------|
D:-2-2--2-2-2--2-2-2--2-2-2--2-4-4--4-4-4--4-4-4--4-4-4--4-------|
A:-0-0--0-0-0--0-0-0--0-0-0--0-2-2--2-2-2--2-2-2--2-2-2--2-------|
D:---------------------------------------------------------------|
        For fear of breaking myself down     And maybe getting
e:---------------------------------------------------------------|
B:---------------------------------------------------------------|
G:---------------------------------------------------------------|
D:---------------------------------------------------------------|
A:-0-0--0-0-0--0-0-0--0-0-0--0---2---2---2---2---2--2------------|
D:-0-0--0-0-0--0-0-0--0-0-0--0---2---2---2---2---2--2------------|
   through,   getting through to you

PRE-CHORUS
Guitar 1
e:---------------------------------------------------------------|
B:---------------------------------------------------------------|
G:-------------------------7--7---7------------------------------|
D:-------------------------7--7---7---4--4-6-6-6h7p6-4-6---------|
A:-4--4---4--4--4--4--4--4-5--5---5------------------------------|
D:-4--4---4--4--4--4--4--4---------------------------------------|
Guitar 2
e:---------------------------------------------------------------|
B:---------------------------------------------------------------|
G:-6--6---6--6--4-----7--6------------2--2-4-4-4h6p4-2-4---------|
D:-----------------7-------7--7---7------------------------------|
A:---------------------------------------------------------------|
D:---------------------------------------------------------------|

Guitar 1
e:---------------------------------------------------------------|
B:---------------------------------------------------------------|
G:-2--2---2--2--2--2--2--2---------------------------------------|
D:-2--2---2--2--2--2--2--2---------------------------------------|
A:-0--0---0--0--0--0--0--0--2-2--2-2-2--2-2-2--2-2-2--2----------|
D:--------------------------2-2--2-2-2--2-2-2--2-2-2--2----------|
Guitar 2
e:---------------------------------------------------------------|
B:---------------------------------------------------------------|
G:-6--6---4--2--2--4--6--6---------------------------------------|
D:---------------------------------------------------------------|
A:---------------------------------------------------------------|
D:---------------------------------------------------------------|

CHORUS
Guitar 1
e:----------------------------------------------------------------|
B:----------------------------------------------------------------|
G:-2--2-2-2-2-2-2-2-2-2-2-2-2-2-2---------------------------------|
D:-2--2-2-2-2-2-2-2-2-2-2-2-2-2-2---------9-9-------------9-9-----|
A:-0--0-0-0-0-0-0-0-0-0-0-0-0-0-0-----7-7-----7-7-----7-7-----7-7-|
D:--------------------------------6-6-------------6-6-------------|

Guitar 2
e:----------------------------------------------------------------|
B:----------------------------------------5-5-------------5-5-3-3-|
G:------------------------------------4-4-----4-4-----4-4---------|
D:--------------------------------6-6-------------6-6-------------|
A:----------------------------------------------------------------|
D:----------------------------------------------------------------|
     For      Pete's       sake   Let's      see        straight

e:---------------------------------------------------------------|
B:---------------------------------------------------------------|
G:---------------------------------------------------------------|
D:---------------------------------------------------------------|
A:--4-4--4-4----4-4--4-4----0-0--0-0----0-0--0-0-----------------|
D:--4-4--4-4----4-4--4-4----0-0--0-0----0-0--0-0-----------------|
pm  ......      ......      ......      ......
            Yeah      Clench your fists up in rage

Guitar 1
e:----------------------------------------------------------------|
B:----------------------------------------------------------------|
G:-2--2-2-2-2-2-2-2-2-2-2-2-2-2-2---------------------------------|
D:-2--2-2-2-2-2-2-2-2-2-2-2-2-2-2---------9-9-------------9-9-----|
A:-0--0-0-0-0-0-0-0-0-0-0-0-0-0-0-----7-7-----7-7-----7-7-----7-7-|
D:--------------------------------6-6-------------6-6-------------|

Guitar 2
e:----------------------------------------------------------------|
B:----------------------------------------5-5-------------5-5-3-3-|
G:------------------------------------4-4-----4-4-----4-4---------|
D:--------------------------------6-6-------------6-6-------------|
A:----------------------------------------------------------------|
D:----------------------------------------------------------------|
     Hurts      to      know      we          could         throw

e:---------------------------------------------------------------|
B:---------------------------------------------------------------|
G:---------------------------------------------------------------|
D:---------------------------------------------------------------|
A:--4-4--4-4----4-4--4-4----0-0--0-0----0-0--0-0-0-0-0-----------|
D:--4-4--4-4----4-4--4-4----0-0--0-0----0-0--0-0-0-0-0-----------|
pm........      ......      ......      ..............
                            All this time away

VERSE #2
                             (Just drums, no guitar)
Let's try and work it out, please don't be angry any-

Guitar 1
e:---------------------------------------------------------------|
B:---------------------------------------------------------------|
G:---------------------------------------------------------------|
D:---------------------------------------------------------------|
A:-2--2-2-2-2-2-2-2-2-2-2-2-2-2-2-0--0-0-0-0-0-0-0-0-0-0-0-0-0-0-|
D:-2--2-2-2-2-2-2-2-2-2-2-2-2-2-2-0--0-0-0-0-0-0-0-0-0-0-0-0-0-0-|

Guitar 2
e:-0--0-0-0-0-0-0-0-0-0-0-0-0-0-0-2--2-2-2-2-2-2-2-2-2-2-2-2-2-2-|
B:---------------------------------------------------------------|
G:---------------------------------------------------------------|
D:---------------------------------------------------------------|
A:---------------------------------------------------------------|
D:---------------------------------------------------------------|
   more              I'm on your side

e:---------------------------------------------------------------|
B:---------------------------------------------------------------|
G:-2-2-2---2-2-2---2-2-2---2-2-2---4-4-4---4-4-4---4-4-4---4-4-4-|
D:-2-2-2---2-2-2---2-2-2---2-2-2---4-4-4---4-4-4---4-4-4---4-4-4-|
A:-0-0-0---0-0-0---0-0-0---0-0-0---2-2-2---2-2-2---2-2-2---2-2-2-|
D:---------------------------------------------------------------|
pm.....    ...     ...     ...     ...     ...     ...     ...
                  And I dont wanna fight           Put this hate
e:---------------------------------------------------------------|
B:---------------------------------------------------------------|
G:---------------------------------------------------------------|
D:---------------------------------------------------------------|
A:-0-0-0---0-0-0---0-0-0---0-0-0---2-2-2---2-2-2---2-2-2---2-2-2-|
D:-0-0-0---0-0-0---0-0-0---0-0-0---2-2-2---2-2-2---2-2-2---2-2-2-|
pm.....    ...     ...     ...     ...     ...     ...     ...
   aside             Get back to a place where ....... be friends

SOLO
 Violin (tabbed for guitar)
e:---------------------------------------------------------------|
B:---------------------------------------------------------------|
G:-6-4-----4-------4-------4-------------------------------------|
D:-----7-6---7-6-4---7-6-7---7-6-2-0-------2-0-------------------|
A:---------------------------------------------------------------|
D:---------------------------------------------------------------|

Guitar 1
e:---------------------------------------------------------------|
B:-7-5-----------------------------------------------------------|
G:-----7-6-7-6-4-6-7-6-4-6-7-6-4-2-4-------2-4-------------------|
D:---------------------------------------------------------------|
A:---------------------------------------------------------------|
D:---------------------------------------------------------------|

Guitar 2
e:---------------------------------------------------------------|
B:---------------------------------------------------------------|
G:---------------------------------------------------------------|
D:---------------------------------------------------------------|
A:---------------------------------------------------------------|
D:-4~------------------------------0~----------------------------|

 Violin
e:---------------------------------------------------------------|
B:-----------------5---------------5-----------------------------|
G:-6-4-----7-6-4-7---7-6-4---4-6-7-------------------------------|
D:-----7-6-----------------7-------------------------------------|
A:---------------------------------------------------------------|
D:---------------------------------------------------------------|

Guitar 1
e:-----------------4---------------4-----------4-4-4--5--4--2--4-|
B:-5-------7-5-------7-5-------5-7-------------------------------|
G:---7-6-4-----7-6-------7-6-7-----------------------------------|
D:---------------------------------------------------------------|
A:---------------------------------------------------------------|
D:---------------------------------------------------------------|

Guitar 2
e:---------------------------------------------------------------|
B:---------------------------------------------------------------|
G:---------------------------------------------------------------|
D:---------------------------------------------------------------|
A:-0~----------------------------------------------2x------------|
D:---------------------------------2~--------------2x------------|

REPEAT PRE-CHORUS (x2)

REPEAT PRE-VERSE part 1 (x1)

REPEAT CHORUS (x1)

NEXT PART
e:----------------------------------------------------------------|
B:----------------------------------------------------------------|
G:----------------------------------------------------------------|
D:----------------------------------------------------------------|
A:0-0-------------2-2-------------4-4-------------6-6-----7-7-----|
D:0-0-0-0-0-0-0-0-2-2-2-2-2-2-2-2-4-4-4-4-4-4-4-4-6-6-6-6-7-7-7-7-|
pm   .............   .............   .............   .....   ....

e:----------------------------------------------------------------|
B:----------------------------------------------------------------|
G:----------------------------------------------------------------|
D:----------------------------------------------------------------|
A:0-0-------------2-2-------------4-4-------------6-6-----7-7-----|
D:0-0-0-0-0-0-0-0-2-2-2-2-2-2-2-2-4-4-4-4-4-4-4-4-6-6-6-6-7-7-7-7-|
pm   .............   .............   .............   .....   ....

e:----------------------------------------------------------------|
B:----------------------------------------------------------------|
G:--------------------------------6-6-6-6-6-6-6-6-----------------|
D:--------------------------------6-6-6-6-6-6-6-6-----------------|
A:0-0-------------2-2-------------4-4-4-4-4-4-4-4-4-4-4-4-2-2-2-2-|
D:0-0-0-0-0-0-0-0-2-2-2-2-2-2-2-2-----------------4-4-4-4-2-2-2-2-|
pm   .............   .............   .............   .....   ....
      And  all the answers you're racing     to   find    out

e:----------------------------------------------------------------|
B:----------------------------------------------------------------|
G:----------------------------------------------------------------|
D:----------------------------------------------------------------|
A:0-0-------------2-2-------------4-4-------------6-6-----7-7-----|
D:0-0-0-0-0-0-0-0-2-2-2-2-2-2-2-2-4-4-4-4-4-4-4-4-6-6-6-6-7-7-7-7-|
pm   .............   .............   .............   .....   ....
      They might out run you in the end

e:----------------------------------------------------------------|
B:----------------------------------------------------------------|
G:--------------------------------6-6-6-6-6-6-6-6-----------------|
D:--------------------------------6-6-6-6-6-6-6-6-----------------|
A:0-0-------------2-2-------------4-4-4-4-4-4-4-4-4-4-4-4-2-2-2-2-|
D:0-0-0-0-0-0-0-0-2-2-2-2-2-2-2-2-----------------4-4-4-4-2-2-2-2-|
pm   .............   .............   .............   .....   ....
      And  all the answers you're racing     to   find    out

e:----------------------------------------------------------------|
B:----------------------------------------------------------------|
G:----------------------------------------------------------------|
D:----------------------------------------------------------------|
A:0-0-------------2-2-------------4-4-------------6-6-----7-7-----|
D:0-0-0-0-0-0-0-0-2-2-2-2-2-2-2-2-4-4-4-4-4-4-4-4-6-6-6-6-7-7-7-7-|
pm   .............   .............   .............   .....   ....
      They might out run you in the end

ENDING
 Guitar 1
e:----------------------------------------------------------------|
B:----------------------------------------------------------------|
G:-----------------------(x3)-------------------------------------|
D:----------------------------------------------------------------|
A:0-0-0-0-0-0-0-0-2-2-2-2-2-2-2-2-4-4-4-4-4-4-4-4-6-6-6-6-7-7-7-7-|
D:0-0-0-0-0-0-0-0-2-2-2-2-2-2-2-2-4-4-4-4-4-4-4-4-6-6-6-6-7-7-7-7-|

e:---------------------------------------------------------------|
B:---------------------------------------------------------------|
G:---------------------------------------------------------------|
D:---------------------------------------------------------------|
A:0-0-0-0-0-0-0-0-2-2-2-2-2-2-2-2-4-4--4-4-4--4-4-4--4-4-4--4-0~-|
D:0-0-0-0-0-0-0-0-2-2-2-2-2-2-2-2-4-4--4-4-4--4-4-4--4-4-4--4-0~-|

 Guitar 2 end solo
e:---------------------------------------------------------------|
B:----5--5-------------------------------------------------------|
G:----------7-6-7-6-4------4-6--4-6-7--6---6-4-4-----------------|
D:-7---------------------7---------------7-----------------------|
A:---------------------------------------------------------------|
D:---------------------------------------------------------------|

e:---------------------------------------------------------------|
B:----5--5---------------------------------5~--------------------|
G:----------7-6-7-6-4------4-6--4-6-7--6-------------------------|
D:-7---------------------7---------------7-----------------------|
A:---------------------------------------------------------------|
D:---------------------------------------------------------------|

e:---------------------------------------------------------------|
B:----5--5-------------------------------------------------------|
G:----------7-6-7-6-4------4-6--4-6-7--6---6-4-4-----------------|
D:-7---------------------7---------------7-----------------------|
A:---------------------------------------------------------------|
D:---------------------------------------------------------------|

e:----------------------------------------------------------------|
B:----5--5--------------------------------------------------------|
G:----------7-6-7-6-4------4-6h7p6-4-6-4-2-4-2-1-2-1---1----------|
D:-7---------------------7---------------------------4---4-2-4-4~-|
A:----------------------------------------------------------------|
D:----------------------------------------------------------------|

------------------------------------------------------------------------------
11. A.W.O.L.
------------------------------------------------------------------------------

Drop D Tuning

GUITAR 1'S PARTS:
-----------------
Intro:
e|---------------------------------------------------------------------------|
B|---------------------------------------------------------------------------|
G|----------------------------------------------------------4-4-4-4-4-4-4----|
D|2-2-2-2-2-*--9-9-9-9-9---------2-2-2-2-2-*--9-9-9-9-9-----4-4-4-4-4-4-4----|
A|2-2-2-2-2-7--9-9-9-9-9---------2-2-2-2-2-7--9-9-9-9-9-----2-2-2-2-2-2-2----|
D|2-2-2-2-2----9-9-9-9-9-9h11p9--2-2-2-2-2----9-9-9-9-9-2-2------------------|

Intro Cont'd:
e|---------------------------------------------------------------------------|
B|---------------------------------------------------------------------------|
G|8-8-8-8-8-8-8-9-9-9-9-9-9-9-9-----------------------------4-4-4-4-4-4-4----|
D|8-8-8-8-8-8-8-9-9-9-9-9-9-9-9-2-2-2-2-1h2p1---2-2-2-2-2-*-4-4-4-4-4-4-4----|
A|6-6-6-6-6-6-6-7-7-7-7-7-7-7-7-2-2-2-2-------4-2-2-2-2-2-7-2-2-2-2-2-2-2----|
D|------------------------------2-2-2-2---------2-2-2-2-2--------------------|

Intro Cont'd:
e|---------------------------------------------------------------------------|
B|---------------------------------------------------------------------------|
G|4-4-4-8-8-8-9-9-9-9-9-9-9--------------------------------------------------|
D|4-4-4-8-8-8-9-9-9-9-9-9-9-2-2-2-2-1h2p1------------------------------------|
A|2-2-2-6-6-6-7-7-7-7-7-7-7-2-2-2-2-------4----------------------------------|
D|--------------------------2-2-2-2------------------------------------------|
  .....

Verse:  "Maybe it's not over yet..."
e|---------------------------------------------------------------------------|
B|----------------------------------------5----------------------------------|
G|----------------------------------------------4----------------------------|
D|2~--1~---------6--4--2~-------------6-6---4-4----6--6-6-6-6-6--6-6-6-------|
A|----2~---2h4~-------------2~---4~----------------4--4-4-4-4-4--4-4-4-6-6-6-|
D|---------------------------------------------------------------------6-6-6-|
                                                   .........................

Verse Cont'd:
e|---------------------------------------------------------------------------|
B|---------------------------------------------------------------------------|
G|-----------------------------------6-6-6-6-6-6-6-6-----------------4-4-4-4-|
D|-------------------9-9-9-9-9-9-9-9-6-6-6-6-6-6-6-6-4-4-4-4-4-4-4-4-4-4-4-4-|
A|6/7-7-7-7--7-7-7-7-7-7-7-7-6-6-6-6-4-4-4-4-4-4-4-4-4-4-4-4-4-4-4-4-2-2-2-2-|
D|6/7-7-7-7--7-7-7-7---------------------------------4-4-4-4-4-4-4-4---------|
  ..................................

Verse Cont'd:
e|---------------------------------------------------------------------------|
B|---------------------------------------------------------------------------|
G|4-4-4-4-4-4-4-4------------------------------------------------------------|
D|4-4-4-4-4-4-4-4------------------------------------------------------------|
A|2-2-2-2-2-2-2-2-4--4--4--4--4-4-4-4-6--6--6--6--6-6-6-6-7--7--7--7--7-7-7-7|
D|---------------------------------------------------------------------------|
                  ...........................................................

Verse Cont'd/Chorus:  "Ran from the life that he hates..."
e|---------------------------------------------------------------------------|
B|---------------------------------------------------------------------------|
G|4-6-8-9x--------------5-5-5-5-5-5-5/7-7-7-7-7-7-7-7-9-9-9-9-9-9-9-9--------|
D|4-6-8-9x--------------5-5-5-5-5-5-5/7-7-7-7-7-7-7-7-9-9-9-9-9-9-9-9-1-1-1-1|
A|2-4-6-7x-----7-7-7x---3-3-3-3-3-3-3/5-5-5-5-5-5-5-5-7-7-7-7-7-7-7-7-2-2-2-2|
D|---------------------------------------------------------------------------|
               .....

Chorus Cont'd:
e|---------------------------------------------------------------------------|
B|---------------------------------------------------------------------------|
G|--------5-5-5-5-5-5-5-5-7-7-7-7-7-7-7-7-9-9-9-9-9-9-9-9-----------------5-5|
D|1-1-1-1-5-5-5-5-5-5-5-5-7-7-7-7-7-7-7-7-9-9-9-9-9-9-9-9-1-1-1-1-1-1-1-1-5-5|
A|2-2-2-2-3-3-3-3-3-3-3-3-5-5-5-5-5-5-5-5-7-7-7-7-7-7-7-7-2-2-2-2-2-2-2-2-3-3|
D|---------------------------------------------------------------------------|

Chorus Cont'd:
e|---------------------------------------------------------------------------|
B|---------------------------------------------------------------------------|
G|5-5-5-5-5-5-7-7-7-7-7-7----------------------------------------------------|
D|5-5-5-5-5-5-7-7-7-7-7-7----------------------------------------------------|
A|3-3-3-3-3-3-5-5-5-5-5-5----------------------------------------------------|
D|---------------------------------------------------------------------------|
                ...   ...

Interlude:  (2x)
e|---------------------------------------------------------------------------|
B|---------------------------------------------------------------------------|
G|------9--------------------------------------------------------------------|
D|6-----9-----6-----6-7-9-9/10-10-10-9-9--9-7-7--7---------------------------|
A|7-7-7-7-7-7-7-7-7--------------------------------6h7p6---------------------|
D|-------------------------------------------------------9-------------------|
    ...   ...                  ...................

Repeat Verse up until 2nd palm muted part

Then This:  (2x)
e|---------------------------------------------------------------------------|
B|---------------------------------------------------------------------------|
G|----------------4-4-4-4-14-14-14-------------------------------------------|
D|2-2-2-2-2-2-2-2-4-4-4-4--x--x--x-7-7-7-7-7-7-7-7-7-7-7-7-7-7-7-7-----------|
A|2-2-2-2-2-2-2-2-2-2-2-2-12-12-12-7-7-7-7-7-7-7-7-7-7-7-7-7-7-7-7-----------|
D|2-2-2-2-2-2-2-2------------------7-7-7-7-7-7-7-7-6-6-6-6-6-6-6-6-----------|

Then This:  "Run from the life that he hates..."
e|---------------------------------------------------------------------------|
B|---------------------------------------------------------------------------|
G|---------------------------------------------------------------------------|
D|2~---------7-7-7-7-7-7-7-7-7-7---------------------------------------------|
A|2~---------5-5-5-5-5-5-5-5-5-5---------------------------------------------|
D|2~-------------------------------------------------------------------------|
               .......   .......

Repeat 2nd Bar of Chorus

Repeat Interlude:  (2x)

Ending:
e|---------------------------------------------------------------------------|
B|---------------------------------------------------------------------------|
G|------------4-4---4-4---5~-------------------------------------------------|
D|2-----2-----2-2---2-2---x--------------------------------------------------|
A|2-----2-----2-2---2-2---3~-------------------------------------------------|
D|2-2-2-2-2-2-2-2-2-2-2-2----------------------------------------------------|
    ...   ...     .     .

GUITAR 2'S PARTS:
-----------------
Intro:
e|---------------------------------------------------------------------------|
B|---------------------------------------------------------------------------|
G|----------------------------------------------------------4-4-4-4-4-4-4----|
D|2-2-2-2-2----9-9-9-9-9---------2-2-2-2-2----9-9-9-9-9-----4-4-4-4-4-4-4----|
A|2-2-2-2-2-*--9-9-9-9-9---------2-2-2-2-2-*--9-9-9-9-9-----2-2-2-2-2-2-2----|
D|2-2-2-2-2-7--9-9-9-9-9-9h11p9--2-2-2-2-2-7--9-9-9-9-9-2-2------------------|

Intro Cont'd:
e|---------------------------------------------------------------------------|
B|---------------------------------------------------------------------------|
G|8-8-8-8-8-8-8-9-9-9-9-9-9-9-9---------4h6-4-2-------------4-4-4-4-4-4-4----|
D|8-8-8-8-8-8-8-9-9-9-9-9-9-9-9-2-2-2-2---------2-2-2-2-2---4-4-4-4-4-4-4----|
A|6-6-6-6-6-6-6-7-7-7-7-7-7-7-7-2-2-2-2---------2-2-2-2-2-*-2-2-2-2-2-2-2----|
D|------------------------------2-2-2-2---------2-2-2-2-2-7------------------|

Intro Cont'd:
e|---------------------------------------------------------------------------|
B|---------------------------------------------------------------------------|
G|4-4-4-8-8-8-9-9-9-9-9-9-9-9-9-9-9-4h6-4-2----------------------------------|
D|4-4-4-8-8-8-9-9-9-9-9-9-9-9-9-9-9------------------------------------------|
A|2-2-2-6-6-6-7-7-7-7-7-7-7-7-7-7-7------------------------------------------|
D|---------------------------------------------------------------------------|
  .....

Verse:  "Maybe it's not over yet..."
e|---------------------------------------------------------------------------|
B|---------------------------------------------------------------------------|
G|---------------------------------------------------------------------------|
D|--------------------1-------6~-----------1--4/6-6--6-6-4-2-1~--1h2-2-2-----|
A|4~---------------------4~----------------------------------------------2-2-|
D|-----6~--6h7~----2--------------7~----2------------------------------------|

Verse Cont'd:
e|---------------------------------------------------------------------------|
B|---------------------------------------------------------------------------|
G|---------------6-6-6-6-6-6-6-6-----------------4-4-4-6-6-6-8-8-8-4-4-4-----|
D|4/6-6--4-6-4-2-6-6-6-6-6-6-6-6-4-4-4-4-4-4-4-4-x-x-x-x-x-x-x-x-x-x-x-x-----|
A|---------------4-4-4-4-4-4-4-4-4-4-4-4-4-4-4-4-2-2-2-4-4-4-6-6-6-2-2-2-----|
D|-------------------------------4-4-4-4-4-4-4-4-----------------------------|

Verse Cont'd:
e|---------------------------------------------------------------------------|
B|---------------------------------------------------------------------------|
G|---------------------------------------------------------------------------|
D|---------------------------------------------------------------------1-----|
A|4--4--4--4--4-4-4-4-2--2--2--2--2-2-2-2-0--0--0--0--0-0-0-0-0x---0-2-------|
D|---------------------------------------------------------------------------|
  .............................................................

Verse Cont'd:
e|---------------------------------------------------------------------------|
B|---------------------------------------------------------------------------|
G|4-4-4-4-4-4-4x-------------------------------------------------------------|
D|2-2-2-2-2-2-2x--2-2-2-1h2p1------------------------------------------------|
A|----------------------------2----------------------------------------------|
D|---------------------------------------------------------------------------|
                  .....

Chorus:  (Play same as guitar 1)

Interlude:  (2x)
e|------7--------------------------------------------------------------------|
B|--------7-7--------9-10-9-10-10-10-10--10-9-9-9-9--9-7-7-7-7--7-9-9-9-9-9-9|
G|------------9--9-9---------9--9--9--9---9-9-9-9-9--9-9-9-9-9--9-9-9-9-9-9-9|
D|6-6-6----------------------------------------------------------------------|
A|---------------------------------------------------------------------------|
D|---------------------------------------------------------------------------|
  .....   ...    ...

Repeat Verse up until 2nd palm muted part

Then This:  (2x)
e|---------------------------------------------------------------------------|
B|---------------------------------------------------------------------------|
G|----------------4-4-4-4-4-4-4-4--------------------------------------------|
D|2-2-2-2-2-2-2-2-4-4-4-4-4-4-4-4-7-7-7-7-7-7-7-7-7-7-7-7-7-7-7-7------------|
A|2-2-2-2-2-2-2-2-2-2-2-2-2-2-2-2-7-7-7-7-7-7-7-7-7-7-7-7-7-7-7-7------------|
D|2-2-2-2-2-2-2-2-----------------7-7-7-7-7-7-7-7-6-6-6-6-6-6-6-6------------|

Then This:  "Run from the life that he hates..."
e|---------------------------------------------------------------------------|
B|---------------------------------------------------------------------------|
G|---------------------------------------------------------------------------|
D|2~---------7-7-7-7-7-7-7-7-7-7---------------------------------------------|
A|2~---------5-5-5-5-5-5-5-5-5-5---------------------------------------------|
D|2~-------------------------------------------------------------------------|
               .......   .......

Repeat 2nd Bar of Chorus

Outro:  (2x)
e|-------7-------------------------------------------------------------------|
B|5-5-5--5--7-7--5--5-5------------------------------------------------------|
G|4-4-4--4--4-4--4--4-4---------4-5-5-5--5-4-5-5-5--5-4-5-5-5--5-4-5-4-------|
D|6-6-6--6--6-6--6--6-6--6-7-6--5-5-5-5--5-5-5-5-5--5-5-5-5-5--5-5-5-5-------|
A|---------------------------------------------------------------------------|
D|---------------------------------------------------------------------------|

3rd Time:
e|-------7-------------------------------------------------------------------|
B|5-5-5--5--7-7--------------------------------------------------------------|
G|4-4-4--4--4-4------------5~------------------------------------------------|
D|6-6-6--6--6-6------------2~------------------------------------------------|
A|--------------7-7---7-7--3~------------------------------------------------|
D|---------------------------------------------------------------------------|

------------------------------------------------------------------------------
12. Rough Draft
------------------------------------------------------------------------------

Standard Tuning/Acoustic

Guitar 1
   A               E               Eadd9           Dsus2
e|---------0-----------------------------------------------0-------|
B|-------------------------0---------------------------3-----3---3-|
G|-----2-----2---2-----1-----1---1-----1---2p1---1---2---2-----2---|
D|---2---2-----2-----2---2-----2-----2---2-----2---0---------------|
A|-0---------------------------------------------------------------|
E|-----------------0---------------2-------------------------------|

Guitar 2
e|---------------------------------------------------------0-------|
B|-----------------------------------------------------0h2---2-0---|
G|---------------------------------------------------2-----------2-|
D|-----------------------------------------------------------------|
A|-----------------------------------------------------------------|
E|-----------------------------------------------------------------|

Guitar 1
   A               E               Eadd9           Dsus2
e|---------0-----------------------------------------------0-------|
B|-------------------------0---------------------------3-----3---3-|
G|-----2-----2---2-----1-----1---1-----1---2p1---1---2---2-----2---|
D|---2---2-----2-----2---2-----2-----2---2-----2---0---------------|
A|-0---------------------------------------------------------------|
E|-----------------0---------------2-------------------------------|

Guitar 2
e|---------------------------------------------------------0-------|
B|-----------------------------------------------------0h2---2-0---|
G|---------------------------------2/4\2-------------2-----------2-|
D|-----------------------------------------------------------------|
A|-----------------------------------------------------------------|
E|-----------------------------------------------------------------|

(play intro riff)
A               E             Eadd9 Dsus2
Like a Saturday night I'll be gone
A               E             N.C.
Like a Saturday night I'll be gone before you knew that I was there

Guitar 1 (play this riff to fill before the verse)
   Asus2       E       E/Db  Dsus2
e|-0-0-x-0-0-x-0-0-x-0-0-0---0-0-0-0-0-0-0-0-0-0-|
B|-0-0-x-0-0-x-0-0-x-0-2-2---3-3-3-3-3-3-3-3-3-3-|
G|-2-2-x-2-2-x-1-1-x-1-1-1---2-2-2-2-2-2-2-2-2-2-|
D|-2-2-x-2-2-x-2-2-x-2-2-2---0-0-0-0-0-0-0-0-0-0-|
A|-0-0-x-0-0-x-2-2-x-2-2-2-----------------------|
E|-0-0-x-0-0-x-0-0-x-0-0-0-----------------------|

   E                     D
e|-0-0-0-0-0-0-0-0-0-0---2-2-2-2-2-2-2-2-2-2-----|
B|-0-0-0-0-0-0-0-0-0-0---3-3-3-3-3-3-3-3-3-3-----|
G|-1-1-1-1-1-1-1-1-1-1---2-2-2-2-2-2-2-2-2-2-----|
D|-2-2-2-2-2-2-2-2-2-2---0-0-0-0-0-0-0-0-0-0-----|
A|-2-2-2-2-2-2-2-2-2-2---------------------------|
E|-0-0-0-0-0-0-0-0-0-0---------------------------|

Guitar 1 (play this for the verses)
   E/A   Asus2    E/A   Asus2    Dsus2
e|-0-0-0-0-0-0-0--0-0-0-0-0-0-0--0-0-0-0-0-0-0-0-0-0-------------|
B|-0-0-0-0-0-0-0--0-0-0-0-0-0-0--3-3-3-3-3-3-3-3-3-3-------------|
G|-1-1-1h2-2-2-2--1-1-1h2-2-2-2--2-2-2-2-2-2-2-2-2-2-------------|
D|-2-2-2-2-2-2-2--2-2-2-2-2-2-2--0-0-0-0-0-0-0-0-0-0-------------|
A|-0-0-0-0-0-0-0--0-0-0-0-0-0-0----------------------------------|
E|-0-0-0-0-0-0-0--0-0-0-0-0-0-0----------------------------------|

   E              Esus           Dsus2*
e|-0-0-0-0-0-0-0--0-0-0-0-0-0-0----0-----0---------0-----0-------|
B|-0-0-0-0-0-0-0--0-0-0-0-0-0-0------3-----3---3-----3-----3---3-|
G|-1-1-1-1-1-1-1-—2-2-2-2-2-2-2--------2-----2---------2-----2---|
D|-2-2-2-2-2-2-2--2-2-2-2-2-2-2--0---------------0---------------|
A|-2-2-2-2-2-2-2—-2-2-2-2-2-2-2----------------------------------|
E|-0-0-0-0-0-0-0--0-0-0-0-0-0-0----------------------------------|

(see above riff)
E/A                         Dsus2
So you wrote it down I'm supposed to care
                 E     Esus
Even though it's never there
             Dsus2*
Sorry if I'm not prepared

E/A                              Dsus2
Is it hard to see the things you substitute
                  E           Esus
For me and all my thoughts of you
                Dsus2*
It's eating me alive to leave you


Guitar 2 (play along with Guitar 1 chords written over lyrics)
   A               E               F#m             D
e|---------0---------------4---------------5\4-2-----------2-------|
B|---------------------0-----0---0-----2---------2-----3-----3---3-|
G|-----2-----2---2---1---1-----1-----2---2-----------2---2-----2---|
D|---2---2-----2---2---------------4---------------0---------------|
A|-0---------------------------------------------------------------|
E|-----------------------------------------------------------------|

   A               E               F#m
e|---------0---------------4---------------5\4-2-------------------|
B|---------------------0-----0---0-----2---------------------------|
G|-----2-----2---2---1---1-----1-----2---2-------------------------|
D|---2---2-----2---2---------------4---------------0---------------|
A|-0---------------------------------------------0-----------------|
E|-----------------------------------------------------------------|

A          E                      F#m
Maybe it's childish and maybe its wrong
               D                           A
But so is your blank stare is lieu of this song
           E                      N.C.
Maybe it's childish and maybe its wrong


A                 E                F#m   D
Don't want to be, don't want to be wro- -ong
A              E                  Dsus2
You're leaving me, you're leaving me in lieu of this song
A                 E                F#m   D
Don't want to be, don't want to be wro- -ong
A              E                  Dsus2
You're leaving me, you're leaving me in lieu of this, in lieu of this song


Solo

Guitar 2 (Guitar 1 chords written below tab)
e|-0-0------------------0----------------0-------0--------------|
B|-----3-2-0---0-0h2------3-2-0-0-0h2------3-2-0----3--2----0---|
G|-----------2-------2----------------1-------------------2---2-|
D|--------------------------------------------------------------|
A|--------------------------------------------------------------|
E|--------------------------------------------------------------|

   Asus2       Dsus2            E                Dsus2


E/A                   Dsus2
I'm breathing in your skin tonight
            E       Esus
Quiet is my loudest cry
                 D*
Wouldn't want to wake the eyes that make me melt inside

E/A                      Dsus2
And if it's healthier to leave you be
                           E      Esus
May your sickness come and set me free
                Dsus2*
Kill me while I still believe that you were meant for me


   A5               C#5              D5               E5
e|-----0-0-----0-0------0-0-----0-0------0-0-----0-0------0-0-----0-0-|
B|-----0-0-----0-0------0-0-----0-0------0-0-----0-0------0-0-----0-0-|
G|-2-2-2-2-2-2-2-2--6-6-6-6-6-6-6-6--7-7-7-7-7-7-7-7--9-9-9-9-9-9-9-9-|
D|-2-2-2-2-2-2-2-2--6-6-6-6-6-6-6-6--7-7-7-7-7-7-7-7--9-9-9-9-9-9-9-9-|
A|-0-0-0-0-0-0-0-0--4-4-4-4-4-4-4-4--5-5-5-5-5-5-5-5--7-7-7-7-7-7-7-7-|
E|--------------------------------------------------------------------|

A5 C#5 D5 E5
Ahhhhhhhhhhhh...
A5 C#5 D5 E5
Ahhhhhhhhhhhh...
A5 C#5 D5 E5
Ahhhhhhhhhhhh...
A5 C#5 D5 E5
Ahhhhhhhhhhhh...

Guitar 2 (play this over A5)
e|-------0-|
B|---0h2---|
G|-2-------|
D|---------|
A|---------|
E|---------|

A5             C#5                      D5
I'm writing my own words, my own little stage
            E5                     A5
My own epic drama, my own scripted page
                  C#5                            D5
I'll send you the rough draft, I'll seal it with tears
             E5                   N.C.
Maybe you'll read it and I'll reappear
A5                    C#5                      D5
From the start it was shaky and the characters rash
                   E5                            A5
A nice setting for heartache where emotions come last
                   C#5                       D5
Oh, I haven't even sought to overcome this desire
              E5                          D      Dm
Of friendly intentions and fare-weathered smiles

      A                 E                F#m   D
And I don't want to be, don't want to be wro- -ong
A              E                  Dsus2
You're leaving me, you're leaving me in lieu of this song
A                 E                F#m   D
Don't want to be, don't want to be wro- -ong
A              E                  Dsus2
You're leaving me, you're leaving me in lieu of this, in lieu of this song


A             E             F#m  D
Like Saturday night I'll be go- -one
A             E             F#m  D
Like Saturday night I'll be go- -one
A             E             F#m  D
Like Saturday night I'll be go- -one
A             E             Dm(V)           Ddim7           A
Like Saturday night I'll be gone before you knew that I was there

Guitar 1
e|-------------------------|
B|-2/3-2-------------------|
G|-------2---------2-------|
D|---------2-0---0---------|
A|-------------4------0----|
E|-------------------------|

Guitar 2
e|-------------------------|
B|-2/3-2-------------------|
G|-------2-----------------|
D|---------2-0-----7*------|
A|-------------4-------12*-|
E|-------------------------|


There you go. You'd better appreciate it, all that copying and pasting was hard.
Добавлено: 22.06.2013
Другие материалы по этой песне:
  • Аккорды и текст

Страница создана 22.06.2013
http://primanota.ru/yellowcard/one-for-the-kids-chords.htm
Привет, Гость.
Предлагаем пройти революционный курс по гитаре.
Подарок от PrimaNota.Ru, забирай!