PrimaNota.ru - самый крупный в мире бесплатный архив песенных текстов, аккордов, табулатур и нот


Yellow Socks - Небо - аккорды и текст, видео

Регистрация Запомнить меня
Войти через:  Facebook Google Twitter Vk Yandex Mail.ru

Yellow Socks - Небо - аккорды и текст, видео

Печатать
Просмотров: 76
Уроки эстрадного вокала в Санкт-Петербурге
Небо
Yellow Socks
Вся песня: Am G

Куплет: (перебор)
трудно бывает я понимаю туман растает
перед собой увидишь ты миллион правил,
день этой бой победители и жертвы
E-------------------------------------------------------------------------------
A-----0------------------------0--------------------------0---------------------
D-------2-------2----------------2--------2----------------2--------2-----------
G------------------------2---------------------------2------------------------2-
B----------1-0----1--0--------------1--0----1--0-------------1--0----1--0-------
E-------------------------------------------------------------------------------

ты не знаешь сколько еще километров
E------------------------------------
A-------5----------------------------
D----------5-----5-----5-----------5-
G------------------------------4-----
B--------------3-----3-----3---------
E------------------------------------

И т.д. по кругу

Припев:
Рифы отрывисто
E----5--5------3/5-------3/5-------------3-3---3-3---33-
A----7--7------5/7-------5/7-------------5-5---5-5---55-
D----7--7------5/7-------5/7-------------5-5---5-5---55-
G-------------------------------------------------------
B-------------------------------------------------------
E-------------------------------------------------------

Риф сплошной
E----5--5--555555----3/5---555555----3/5---555555----------3-3---3-3---33-
A----7--7--777777----5/7---777777----5/7---777777----------5-5---5-5---55-
D----7--7--777777----5/7---777777----5/7---777777----------5-5---5-5---55-
G-------------------------------------------------------------------------
B-------------------------------------------------------------------------
E-------------------------------------------------------------------------
Добавлено: 18.11.2015
Вам также может быть интересно:
Другие материалы по этой песне:
  • Аккорды и текст

Страница создана 18.11.2015
http://primanota.ru/yellow-socks/nebo-chords.htm
Привет, Гость.
Предлагаем пройти революционный курс по гитаре.
Подарок от PrimaNota.Ru, забирай!