PrimaNota.ru - самый крупный в мире бесплатный архив песенных текстов, аккордов, табулатур и нот


Yellow Socks - Искры костра - аккорды и текст, видео

Регистрация Запомнить меня
Войти через:  Facebook Google Twitter Vk Yandex Mail.ru

Yellow Socks - Искры костра - аккорды и текст, видео

Печатать
Просмотров: 228
Искры костра
Yellow Socks
Куплет:
она заставит бежать и обо всем на свете забыть, 
заставит плыть, иногда даже ныть
E------4---------------2-----------------------4---------------------2--------------
A--------6----------------------------------------6-------------------------------4-
D-------------6----------------4------------------------6--------------------4------
G----------4----------------3-----------------------4-------------------3-----------
B-----------------------------------------------------------------------------------
E-----------------------------------------------------------------------------------

ее не смыть водой, ее ничем почти не смыть, 
в любое время суток может позвонить
E---------0-------------0--------------------6-----------
A-----------2-----------------------------------6--------
D------------------2--------------2----------------8-----
G--------------1-------------1-------------------------6-
B--------------------------------------------------------
E--------------------------------------------------------

Припев: те же ноты, бой с акустики легко подбирается
Добавлено: 18.11.2015
Вам также может быть интересно:
Другие материалы по этой песне:
  • Аккорды и текст

Страница создана 29.10.2015
http://primanota.ru/yellow-socks/iskry-kostra-chords.htm
Привет, Гость.
Предлагаем пройти революционный курс по гитаре.
Подарок от PrimaNota.Ru, забирай!