PrimaNota.ru - самый крупный в мире бесплатный архив песенных текстов, аккордов, табулатур и нот


Yellow Ostrich - Bread Bonus Track - аккорды и текст, видео

Регистрация Запомнить меня
Войти через:  Facebook Google Twitter Vk Yandex Mail.ru

Yellow Ostrich - Bread Bonus Track - аккорды и текст, видео

Печатать
Просмотров: 111
Уроки эстрадного вокала в Санкт-Петербурге
Bread Bonus Track
Yellow Ostrich
-------------------------------------------------------------------------------
                             Bread (bonus track) - Yellow Ostrich
-------------------------------------------------------------------------------

Tuning: standard

e | ------------------------------------------------ |
B | ------------------------------------------------ |
G | ------8-------8-------8--------8--------8------- |
D | --------9-------9-------9--------9--------9----- |
A | ------------------------------------------------ |
E | --7-------7-------7--------7--------7----------- |

  To go away for quite a while

e | ------------------------------------------------ |
B | ------------------------------------------------ |
G | ------9-------9-------9-------9-------9--------- |
D | --------6-------6-------6-------6-------6------- |
A | --7-------7-------7-------7-------7------------- |
E | ------------------------------------------------ |

  If that is what would make you smile

e | ------------------------------------------------ |
B | ------------------------------------------------ |
G | ------4-------4-------4-------4-------4--------- |
D | --------6-------6-------6-------6-------6------- |
A | ------------------------------------------------ |
E | --4-------4-------4-------4-------4------------- |

  It's something I would gladly do

e | ------------------------------------------------ |
B | ------------------------------------------------ |
G | ------3-------3-------3-------3-------3--------- |
D | --------4-------4-------4-------4-------4------- |
A | ------------------------------------------------ |
E | --2-------2-------2-------2-------2------------- |

  Because I am in love with you

-repeat-

guitar bit near the end (very simple version):

e | ------------------------------------------------------------------------ |
B | ------------------------------------------------------------------------ |
G | ------------------------------------------------------------------------ |
D | ------------------------------------------------------------------------ | 
A | -3-3-5-3-3-5-3-3-5-3-3-5-3-3-5-3-3-5-3-3-5-3-3-------------------------- |
E | -----------------------------------------------3-5-5-7-5-5-3-3-5-3-3-7-- |

    Brother won't you sing a song for me

e | ---------------------------- |
B | ---------------------------- |
G | ---------------------------- |
D | ---------------------------- | 
A | ----7------5---------------- |
E | ---------------------------- |

    Sing along and then follow me

-repeat-

Ending:

B
Brother won't you sing a song for me
G#         F#              B
Sing along and then follow me
B
Take your chance to bring your news to me
G#      F#                        B
Tell me how she'd look if I could see
Добавлено: 01.09.2015
Другие материалы по этой песне:
  • Аккорды и текст

Страница создана 01.09.2015
http://primanota.ru/yellow-ostrich/bread-bonus-track-chords.htm
Привет, Гость.
Предлагаем пройти революционный курс по гитаре.
Подарок от PrimaNota.Ru, забирай!