PrimaNota.ru - самый крупный в мире бесплатный архив песенных текстов, аккордов, табулатур и нот


Yehuda Poliker - Things I Wanted To Say - таба, видео

Регистрация Запомнить меня
Войти через:  Facebook Google Twitter Vk Yandex Mail.ru

Yehuda Poliker - Things I Wanted To Say - таба, видео

Печатать
Просмотров: 116
Уроки эстрадного вокала в Санкт-Петербурге
Yehuda Poliker - Things I wanted to say


Tab by Avi Yaacov
Israel, 2014


This is a beautiful song by a very talented guitar player.
The riffs are played on a Bouzouki, but the tab is for a standard guitar.



Main Riff:

e|----------------------5-5--|--5-----------------5-5--|
B|---------5-6-5h6p5---------|--------5-6-5h6p5--------|
G|--7----7-----------7-------|----7-7-----------7------|
D|---------------------------|-------------------------|
A|---------------------------|-------------------------|
E|---------------------------|-------------------------|



e|--5/10-10-10---10-10-8-8-6-6---8-6h8p6--5h6p5--|
B|-----------------------------------------------|
G|-----------------------------------------------|
D|-----------------------------------------------|
A|-----------------------------------------------|
E|-----------------------------------------------|



e|---6h8p6--5h6p5--3h5p3--1h3p1---3h1p3p0--|
B|-----------------------------------------|
G|-----------------------------------------|
D|-----------------------------------------|
A|-----------------------------------------|
E|-----------------------------------------|



~  Chords  ~

Verse:
Dm / C / Bb/ A7     X 2

Bb / F / D7 / Gm
A7 / Dm / A7 / D
Gm / A7



Interlude:

e|--------5-6p5---------------------|
B|--6---6-------8--6-8p6-5-5-6p5----|
G|----7--------------------------7--|
D|----------------------------------|
A|----------------------------------|
E|----------------------------------|

e|--------5-6p5-----------------|
B|--6---6-------8--6-8p6-5---6--|
G|----7--------------------7----|
D|------------------------------|
A|------------------------------|
E|------------------------------|

e|--5-5-5/10---10-10-10/6---6-6-6/5---------|
B|-----------------------------------8-6-5--|
G|------------------------------------------|
D|------------------------------------------|
A|------------------------------------------|
E|------------------------------------------|


e|--5-5-5/10---10-10-10/6---6-6-6/5---------|
B|-----------------------------------6p5h6--|
G|------------------------------------------|
D|------------------------------------------|
A|------------------------------------------|
E|------------------------------------------|

e|--5-5-5---8--8/10/8---6/5-6-----6-6-6p5--3/1-3-1--|--3p1p0--0--1p0----|
B|--------------------------------------------------|----------------3--|
G|--------------------------------------------------|-------------------|
D|--------------------------------------------------|-------------------|
A|--------------------------------------------------|-------------------|
E|--------------------------------------------------|-------------------|


e|--------5-6p5--------------------|
B|--6---6-------8--6-8p6---6p5--6--|
G|----7----------------------------|
D|---------------------------------|
A|---------------------------------|
E|---------------------------------|

e|--5/10-10-8-10---6-5-6------------------5/10-10vv--|
B|--------------------------8-6-5--------------------|
G|--------------------------------7-7----------------|
D|---------------------------------------------------|
A|---------------------------------------------------|
E|---------------------------------------------------|


Fills after Interlude, alongside chords:

D|--5-6-8-------6-8-10-------------|
A|---------------------------------|
E|---------------------------------|
D|---------------------------------|
A|---------------------------------|
E|---------------------------------|
Добавлено: 10.08.2015
Вам также может быть интересно:
Другие материалы по этой песне:
  • Аккорды и текст

Страница создана 10.08.2015
http://primanota.ru/yehuda-poliker/things-i-wanted-to-say-chords.htm
Привет, Гость.
Предлагаем пройти революционный курс по гитаре.
Подарок от PrimaNota.Ru, забирай!