PrimaNota.ru - самый крупный в мире бесплатный архив песенных текстов, аккордов, табулатур и нот


Yeah Yeah Yeahs - Modern Romance - аккорды и текст, таба, бас-таба, видео

Регистрация Запомнить меня
Войти через:  Facebook Google Twitter Vk Yandex Mail.ru

Yeah Yeah Yeahs - Modern Romance - аккорды и текст, таба, бас-таба, видео

Печатать
Просмотров: 136
Уроки эстрадного вокала в Санкт-Петербурге
Modern Romance
Yeah Yeah Yeahs
Song: Modern Romance
By: Yeah Yeah Yeahs
Album: Fever To Tell
Tabbed by PrincessSnootyPants@hotmail.com

Just play an A5 on the E string sliding your index finger down
one fret every six beats, play twice slide back...

e|--------------------------------------------------
B|--------------------------------------------------
G|--------------------------------------------------
D|--7-7-7-7-7-7-7-7--------------------------------
A|--7-7-7-7-7-7-7-7--------------------------------
E|--5-5-5-5-5-5s4-4--------------------------------
played ad nauseum ...Until 1:38 When you just take everything down a string

e|-------------------------------------------------
B|-------------------------------------------------
G|--7-7-7-7-7-7-7-7--------------------------------
D|--7-7-7-7-7-7-7-7--------------------------------
A|--5-5-5-5-5-5s4-4--------------------------------
E|-------------------------------------------------
x2
...then back to the top string for the rest of the song


I didn't indicate timing(though i sorta think i did) but this is a very slow 
one

This  ones easy, I learned it as soon as I listened to it.
then I decided to tab it out... and this is it ... i tabbed it out ... so 
there.

     
Добавлено: 02.11.2013
Другие материалы по этой песне:
  • Аккорды и текст

Страница создана 28.05.2012
http://primanota.ru/yeah-yeah-yeahs/modern-romance-chords.htm
Привет, Гость.
Предлагаем пройти революционный курс по гитаре.
Подарок от PrimaNota.Ru, забирай!