PrimaNota.ru - самый крупный в мире бесплатный архив песенных текстов, аккордов, табулатур и нот


Yeah Yeah Yeahs - Honeybear - текст песни, таба, видео

Регистрация Запомнить меня
Войти через:  Facebook Google Twitter Vk Yandex Mail.ru

Yeah Yeah Yeahs - Honeybear - текст песни, таба, видео

Печатать
Просмотров: 125
	I pretty much just fixed the already existing tab. I made the solo different completely 
I dunno, the first one solo may be right in a sence..but I think mine flows better overall.
	-Kendra

Beginning (some hammer on's; i think you can figure it out)
e|----------------------------------------------------------------------------|
B|--10-8-10-8-10---8-10-12-13-12----------------------------------------------|
G|----------------------------------------------------------------------------|
D|----------------------------------------------------------------------------|
A|----------------------------------------------------------------------------|
E|----------------------------------------------------------------------------| x2

e|----------------------------------------------------------------------------|
B|--13-13-13--13-15--12-12-12--12-13-12---------------------------------------|
G|----------------------------------------------------------------------------|
D|----------------------------------------------------------------------------|
A|----------------------------------------------------------------------------|
E|----------------------------------------------------------------------------| x2

chorus
e|------------------------------------------------------------------------------|
B|------------------------------------------------------------------------------|
G|------------------------------------------------------------------------------|
D|-7-7-7--7-7-7-7--7-7-7--5-5---------------------------------------------------|
A|-7-7-7--7-7-7-7--7-7-7--5-5---------------------------------------------------|
E|-5-5-5--0-5-5-5--5-5-5--3-3---------------------------------------------------|

verse
e|--------------------------------------------------------------------------|
B|--------------------------------------------------------------------------|
G|--------------------------------------------------------------------------|
D|-7-7—-2—-5—-10--12--7-7-7-------------------------------------------------|
A|-7-7--2—-5—-10--12--7-7-7-------------------------------------------------|
E|-5-5--0-—3—-8---10--5-5-5-------------------------------------------------|

solo
e|--------------------------------------------------------------------------|
B|--------------------------------------------------------------------------|
G|--12-14-9-14-12-9--9------------------------------------------------------|
D|-----------------10-10-12--12--12--14-15--15--15--------------------------|
A|-----------------------------12--12-----15--15----------------------------|
E|--------------------------------------------------------------------------|x2

Okay a bass part...even thought yeah yeah yeahs don't have one?? Must be down tuned..

Then end with chorus
Plus
Bend + shake this:

e|--0-----------|
B|--0-----------|
G|--5-----------|
D|--6-----------|
A|--7-----------|
E|--x-----------|
Добавлено: 16.10.2013
Другие материалы по этой песне:
  • Аккорды и текст

Страница создана 04.07.2012
http://primanota.ru/yeah-yeah-yeahs/honeybear-chords.htm
Привет, Гость.
Предлагаем пройти революционный курс по гитаре.
Подарок от PrimaNota.Ru, забирай!