PrimaNota.ru - самый крупный в мире бесплатный архив песенных текстов, аккордов, табулатур и нот


Łydka Grubasa - Wydoj Mnie - таба, видео

Регистрация Запомнить меня
Войти через:  Facebook Google Twitter Vk Yandex Mail.ru

Łydka Grubasa - Wydoj Mnie - таба, видео

Печатать
Просмотров: 95
Уроки эстрадного вокала в Санкт-Петербурге
Strojenie/Tuning: B E A D F# B

INTRO(acoustic):
    C   G         F            G
B |-0-|-3-|-1-1--1111--1111-|-3-3-||
F#|-1-|-3-|-1-1--1111--1111-|-3-3-||
D |-0-|-0-|-2-2--2222--2222-|-4-4-||
A |-2-|-0-|-3-3--3333--3333-|-5-5-||
E |-3-|-2-|-3-3--3333--3333-|-5-5-||
B |-0-|-3-|-1-1--1111--1111-|-3-3-||

RIFF 1 (DIST.):

B |-----|------------|-----|-------------|-1-1--1111--1111-|-3-3-||
F#|-----|------------|-----|-------------|-1-1--1111--1111-|-3-3-||
D |-5-5-|-----0------|-----|-------------|-2-2--2222--2222-|-4-4-||
A |-5-5-|--2-3-3-2---|-5-5-|-----0-------|-3-3--3333--3333-|-5-5-||
E |-3-3-|-3-------3--|-5-5-|--2-3-3-2----|-3-3--3333--3333-|-5-5-||
B |-----|----------3-|-3-3-|-3-------3-1-|-1-1--1111--1111-|-3-3-||

(RIFF 1) PLAYED 2 times

VERSE: (LIKE INTRO)

CHORUS:

B |----|----|----|----|----|
F#|----|----|----|----|----|
D |-2~-|----|----|-5~-|----|
A |-2~-|-2~-|-3~-|-5~-|-5~-|   x2
E |-0~-|-2~-|-3~-|-3~-|-5~-|
B |----|-0~-|-1~-|----|-3~-|

(RIFF 1) PLAYED 2 times


"Kto wybrzydza, ten nie rucha..."
                             (end)
B |-----------|--------------|---|
F#|-----------|--------------|---|
D |-----------|--------------|---|
A |-7-7s5s7-7-|-7-7-5-7-10-5-|-7-|
E |-7-7s5s7-7-|-7-7-5-7-10-5-|-7-|
B |-5-5s3s5-5-|-5-5-3-5-8--3-|-5-|

CHORUS


END!! :) 
Добавлено: 20.06.2016
Другие материалы по этой песне:
  • Аккорды и текст

Страница создана 20.06.2016
http://primanota.ru/ydka-grubasa/wydoj-mnie-chords.htm
Привет, Гость.
Предлагаем пройти революционный курс по гитаре.
Подарок от PrimaNota.Ru, забирай!