PrimaNota.ru - самый крупный в мире бесплатный архив песенных текстов, аккордов, табулатур и нот


Yawning Man - Rock Formations - таба, видео

Регистрация Запомнить меня
Войти через:  Facebook Google Twitter Vk Yandex Mail.ru

Yawning Man - Rock Formations - таба, видео

Печатать
Просмотров: 186
e|-------------------------------------------------------------------|
B|-------------------------------------------------------------------|
G|----------------------------------------------------------1-1-1-1--|
D|----1-2-0-1-1-1-1-1-1-1-1-2-2-2-2---1-2-0-1-1-1-1-1-1-1-1-2-2-2-2--|
A|--2-------2-2-2-2-2-2-2-2-0-0-0-0-2-------2-2-2-2-2-2-2-2----------|
E|----------2-2-2-2-2-2-2-2-----------------2-2-2-2-2-2-2-2----------|

e|---4-4-4-5-5-4-2--p0v------4-4-4-5-5-4-2--p0v----------0--|
B|-------------------------------------------------0-3s5----|
G|----------------------------------------------------------|
D|----------------------------------------------------------|
A|----------------------------------------------------------|
E|----------------------------------------------------------|

e|--------------------------------------------------------|
B|--------------------------------------------------------|
G|-----0v-------------------------0v----------------------|
D|--0---------------0----1-2-0-0--------------------------|
A|----------------0----2----------------------------------|
E|---------1-1-3----------------------1-1-3--3-3-3-3-3-3--|

e|---------------------------------------------------------|
B|---------------------------------------------------------|
G|---------------------------------------------------------|
D|---------------------------------------------------------|
A|---------------------------------------------------------|
E|--0-3-5-5-5v--5--6-8-8-8v--8--3-5-5-5v--5-0-1-3-3-3v--3--|

e|----------------------------------|
B|----------------------------------|
G|----------------------------------|
D|----------------------------------|
A|----------------------------------|
E|---0-1-3-3-3-3-3-3-3-3-3-3-3-3-3--|

e|----------------------5---------2-----2--------|
B|----0v---0-2v---0-2-2-------2h3---2h3---3-2-0--|
G|-----------------------------------------------|
D|--2--------------------------------------------|
A|-----------------------------------------------|
E|-----------------------------------------------|

legend:
v = vibrato
h = hammer on
p = pull-off

listen to the song to get the timing right
Добавлено: 25.03.2012
Другие материалы по этой песне:
  • Аккорды и текст

Страница создана 25.03.2012
http://primanota.ru/yawning-man/rock-formations-chords.htm
Привет, Гость.
Предлагаем пройти революционный курс по гитаре.
Подарок от PrimaNota.Ru, забирай!