PrimaNota.ru - самый крупный в мире бесплатный архив песенных текстов, аккордов, табулатур и нот


Yattering - The Feeling - таба, видео

Регистрация Запомнить меня
Войти через:  Facebook Google Twitter Vk Yandex Mail.ru

Yattering - The Feeling - таба, видео

Печатать
Просмотров: 124
Уроки эстрадного вокала в Санкт-Петербурге
THE FEELING
                            As recorded by Yattering
                       (From the 1998 Album HUMAN'S PAIN)
                        (c) Moonlight Productions 1998

Arranged by Yattering



Gtr I (D G C F A D) - 'Untitled'
Gtr II (D G C F A D) - 'Untitled'


 Intro
  Q.=140
 12/8
  Gtrs I, II
|-----|
|-----|
|-----|
|-----|
|-----|
|-----|


                                                       5x
||--------------------------|--------------------------||
||o-------------------------|-------------------------o||
||--------------------------|-------------3S4-4--------||
||--------------6S7-7-------|-------------1S2-2--------||
||o-8S7-7-7S6-6-4S5-5-8S7-7-|-4S3-3-3p2-2-------4S3-3-o||
||--6S5-5-5S4-4-------6S5-5-|-2S1-1-1p0-0-------2S1-1--||


  Gtr I
|-------------------------|-------------------------|
|-------------------------|-------------------------|
|-------------------------|-------------3S4-4-------|
|-------------6S7-7-------|-------------1S2-2-------|
|-8S7-7-7S6-6-4S5-5-8S7-7-|-4S3-3-3p2-2-------4S3-3-|
|-6S5-5-5S4-4-------6S5-5-|-2S1-1-1p0-0-------2S1-1-|
|
| Gtr II
| PM----|                   PM----|
|-------------------------|-------------------------|
|-------------------------|-------------------------|
|-------------------------|-------------------------|
|-------------------------|-------------------------|
|-8-----7-----------8---7-|-4-----3-----------------|
|-6-----5-----------6---5-|-2-----1-----------------|


    Gtrs I, II
                                                       3x
||--------------------------|--------------------------||
||o-------------------------|-------------------------o||
||--------------------------|-------------3S4-4--------||
||--------------6S7-7-------|-------------1S2-2--------||
||o-8S7-7-7S6-6-4S5-5-8S7-7-|-4S3-3-3p2-2-------4S3-3-o||
||--6S5-5-5S4-4-------6S5-5-|-2S1-1-1p0-0-------2S1-1--||


                                        PM|
|-------------------------|---------------------|
|-------------------------|---------------------|
|-------------------------|---------------------|
|-------------6S7-7-------|---------------------|
|-8S7-7-7S6-6-4S5-5-8S7-7-|-4S3-3-3p2-2-2-2-----|
|-6S5-5-5S4-4-------6S5-5-|-2S1-1-1p0-0-0-0-----|


  PM----------------|                     PM--|
|---------------------|-------------------------|
|---------------------|-------------------------|
|---------------------|-3S4-4-3S4-4-3S4-4-------|
|---------------------|-1S2-2-1S2-2-1S2-2-------|
|-5-5-----5-5-5-4-5-5-|-------------------7-6-4-|
|-3-3-----3-3-3-2-3-3-|-------------------5-4-2-|


 Verse
 4/4
  Gtr I
  PM----------------------------------------------|
|-------------------------|-------------------------|
|-------------------------|-------------------------|
|-------------------------|-------------------------|
|-------------------------|-------------------------|
|-------5-5-5-------------|-------------------------|
|-5-5-5-------5-5-5-0-0-0-|-3-3-3-0-0-0-3-3-3-5-5-5-|
|
| Gtr II
|-------------------------|-------------------------|
|-------------------------|-------------------------|
|-------------------------|-------------------------|
|-------------------------|-------------------------|
|-------------------------|-------------------------|
|-------------------------|-------------------------|


    Gtrs I, II
    PM----------------------------------------------|
||--------------------------|-------------------------|
||o-------------------------|-------------------------|
||--------------------------|-------------------------|
||--------------------------|-------------------------|
||o-------5-5-5-------------|-------------------------|
||--5-5-5-------5-5-5-0-0-0-|-3-3-3-0-0-0-3-3-3-5-5-5-|


  PM----------------------------------------------|
|-------------------------|--------------------------||
|-------------------------|-------------------------o||
|-------------------------|--------------------------||
|-------------------------|--------------------------||
|-5-5-5-------8-8-8-------|-5-5-5-------5-5-5-8-8-8-o||
|-------5-5-5-------5-5-5-|-------5-5-5--------------||


    PM--------------------------------------------------------------|
                                                                       4x
||----------------------------------|----------------------------------||
||o---------------------------------|---------------------------------o||
||----------------------------------|----------------------------------||
||----------------------------------|-3-3-3-3--------------------------||
||o-3-3-3-3-3-3-3-3-----------------|---------1-1-1-1-3-3-3-3-3-3-3-3-o||
||------------------1-1-1-1-1-1-1-1-|----------------------------------||


    Gtr I
    PM----------------------------------------------|
||--------------------------|-------------------------|
||o-------------------------|-------------------------|
||--------------------------|-------------------------|
||--------------------------|-------------------------|
||o-------5-5-5-------------|-------------------------|
||--5-5-5-------5-5-5-0-0-0-|-3-3-3-0-0-0-3-3-3-5-5-5-|
|
|   Gtr II
|   PM--------------|         PM--|       PM--------|
||--------------------------|-------------------------|
||o-------------------------|-------------------------|
||--------------------------|-------------------------|
||--------------------------|-------------------------|
||o-------5-5-5-------------|-------------------------|
||--5-5-5-------5-5-5-------|-3-3-3-------3-3-3-5-5-5-|


  Gtrs I, II
  PM----------------------------------------------|
|-------------------------|--------------------------||
|-------------------------|-------------------------o||
|-------------------------|--------------------------||
|-------------------------|--------------------------||
|-5-5-5-------8-8-8-------|-5-5-5-------5-5-5-8-8-8-o||
|-------5-5-5-------5-5-5-|-------5-5-5--------------||


    PM-------------------------------
||----------------------------------|
||o---------------------------------|
||----------------------------------|
||----------------------------------|
||o-3-3-3-3-3-3-3-3-----------------|
||------------------1-1-1-1-1-1-1-1-|


 -------------------------------|
                                   4x
|----------------------------------||-----------|
|---------------------------------o||-----------|
|----------------------------------||-----------|
|-3-3-3-3--------------------------||-5----7----|
|---------1-1-1-1-3-3-3-3-3-3-3-3-o||-3----5----|
|----------------------------------||-----------|


 Intro riff altered
 12/8
              PM|   PM|                 PM|   PM|
|-------------------------|-------------------------|
|-------------------------|-------------------------|
|-------------------------|-------------------------|
|-----------------5-----8-|-----------------5-----8-|
|-4S3-3-3p2-2---2-3---2-6-|-4S3-3-3p2-2---2-3---2-6-|
|-2S1-1-1p0-0-0-----0-----|-2S1-1-1p0-0-0-----0-----|


  Gtr I
              PM|   PM|                 PM|   PM|
|-------------------------|-------------------------|
|-------------------------|-------------------------|
|-------------------------|-------------------------|
|-----------------5-----8-|-----------------5-----8-|
|-4S3-3-3p2-2---2-3---2-6-|-4S3-3-3p2-2---2-3---2-6-|
|-2S1-1-1p0-0-0-----0-----|-2S1-1-1p0-0-0-----0-----|
|
| Gtr II
|             PM|   PM|                 PM|   PM|
|-------------------------|-------------------------|
|-------------------------|-------------------------|
|-------------------------|-------------------------|
|-----------------5-----8-|-----------------5-----8-|
|---------------2-3---2-6-|---------------2-3---2-6-|
|-------------0-----0-----|-------------0-----0-----|


    Gtrs I, II
                PM|   PM|                 PM|   PM|
                                                       4x
||--------------------------|--------------------------||------|
||o-------------------------|-------------------------o||------|
||--------------------------|--------------------------||------|
||------------------5-----8-|-----------------5-----8--||------|
||o-4S3-3-3p2-2---2-3---2-6-|-4S3-3-3p2-2---2-3---2-6-o||-5----|
||--2S1-1-1p0-0-0-----0-----|-2S1-1-1p0-0-0-----0------||-3----|


   Bridge
    Q=220
   6/8
    Gtr I
    T   T   T   T   T   T     T   T   T   T   T   T
||--------------------------|-------------------------|
||o-------------------------|-------------------------|
||--------------------------|-------------------------|
||--8p4-8p4-8p4-7p3-7p3-7p3-|-------------------------|
||o-------------------------|-8p4-8p4-8p4-7p3-7p3-7p3-|
||--------------------------|-------------------------|
|
|   Gtr II
|   T   T   T   T   T   T     T   T   T   T   T   T
||--------------------------|-------------------------|
||o-------------------------|-------------------------|
||--------------------------|-------------------------|
||--------------------------|-------------------------|
||o-8p4-8p4-8p4-7p3-7p3-7p3-|-------------------------|
||--------------------------|-8p4-8p4-8p4-7p3-7p3-7p3-|


  T   T   T   T   T   T     T   T   T   T   T   T
|-------------------------|-------------------------|
|-------------------------|-------------------------|
|-------------------------|-------------------------|
|-8p4-8p4-8p4-7p3-7p3-7p3-|-------------------------|
|-------------------------|-8p4-8p4-8p4-9p5-9p5-9p5-|
|-------------------------|-------------------------|
|
| T   T   T   T   T   T     T   T   T   T   T   T
|-------------------------|-------------------------|
|-------------------------|-------------------------|
|-------------------------|-------------------------|
|-------------------------|-------------------------|
|-8p4-8p4-8p4-7p3-7p3-7p3-|-------------------------|
|-------------------------|-8p4-8p4-8p4-9p5-9p5-9p5-|


  T   T   T   T   T   T     T   T   T   T   T   T
|-------------------------|-------------------------|
|-------------------------|-------------------------|
|-------------------------|-------------------------|
|-------------------------|-7p3-7p3-7p3-8p4-8p4-8p4-|
|-8p4-8p4-8p4-7p3-7p3-7p3-|-------------------------|
|-------------------------|-------------------------|
|
| T   T   T   T   T   T     T   T   T   T   T   T
|-------------------------|-------------------------|
|-------------------------|-------------------------|
|-------------------------|-------------------------|
|-------------------------|-------------------------|
|-------------------------|-7p3-7p3-7p3-8p4-8p4-8p4-|
|-8p4-8p4-8p4-7p3-7p3-7p3-|-------------------------|


  T   T   T   T   T   T      T    T    T    T    T    T
|-------------------------|--------------------------------||
|-------------------------|-------------------------------o||
|-------------------------|--------------------------------||
|-------------------------|-11p8-11p8-11p8-10p7-10p7-10p7--||
|-8p4-8p4-8p4-7p3-7p3-7p3-|-------------------------------o||
|-------------------------|--------------------------------||
|
| T   T   T   T   T   T      T    T    T    T    T    T
|-------------------------|--------------------------------||
|-------------------------|-------------------------------o||
|-------------------------|--------------------------------||
|-------------------------|--------------------------------||
|-------------------------|-11p8-11p8-11p8-10p7-10p7-10p7-o||
|-8p4-8p4-8p4-7p3-7p3-7p3-|--------------------------------||


  Q=18H.=H
  T   T   T   T   T   T     T   T   T   T   T   T
|-------------------------|-------------------------|
|-------------------------|-------------------------|
|-------------------------|-------------------------|
|-------------------------|-------------------------|
|-9p5-9p5-9p5-9p5-9p5-8p4-|-8p4-8p4-8p4-8p4-8p4-8p4-|
|-------------------------|-------------------------|
|
| T   T   T   T   T   T     T   T   T   T   T   T
|-------------------------|-------------------------|
|-------------------------|-------------------------|
|-------------------------|-------------------------|
|-------------------------|-------------------------|
|-9p5-9p5-9p5-9p5-9p5-8p4-|-8p4-8p4-8p4-8p4-8p4-8p4-|
|-------------------------|-------------------------|


  Q=150H.=H
   ~~~~~~~~~~~~~~~~~~~~~~~~~~~~~~~~
|--------------------------|-----------------------------|
|--------------------------|-----------------------------|
|--------------------------|-----------------------------|
|--------------------------|-----------------------------|
|-[7]----------------------|-([7])-----------------------|
|--------------------------|-----------------------------|
|
|  T   T   T   T   T   T       T     T   T   T   T   T
|--------------------------|-----------------------------|
|--------------------------|-----------------------------|
|--------------------------|-----------------------------|
|--------------------------|-----------------------------|
|--8p4-8p4-8p4-8p4-8p4-8p4-|---8p==4-8p4-8p4-8p4-8p4-8p4-|
|--------------------------|-----------------------------|


 Verse
  Q.=150
 12/8
      PM--|     PM--|       PM--|     PM--|
|---------------------|---------------------|
|---------------------|---------------------|
|---------------------|---------------------|
|---------------------|---------------------|
|-3---4-3-4-3---4-3-4-|-3---4-3-4-3---4-3-4-|
|-1---------1---------|-1---------1---------|
|
|     PM--|     PM--|
|---------------------|---------------------|
|---------------------|---------------------|
|---------------------|---------------------|
|---------------------|-----4-3-4-----4-3-4-|
|-3---4-3-4-3---4-3-4-|-3---------3---------|
|-1---------1---------|-1---------1---------|


  Gtrs I, II
|----------------------|----------------------|
|----------------------|----------------------|
|----------------------|----------------------|
|----------------------|----------------------|
|-3---4-3-4-6-5-6-8\---|-3---4-3-4-6-5-6-8\---|
|-1--------------------|-1--------------------|


  Gtr I
|----------------------|----------------------|
|----------------------|----------------------|
|----------------------|----------------------|
|----------------------|----------------------|
|-3---4-3-4-6-5-6-8\---|-3---4-3-4-6-5-6-8\---|
|-1--------------------|-1--------------------|
|
| Gtr II
|----------------------|----------------------|
|----------------------|----------------------|
|----------------------|----------------------|
|----------------------|----------------------|
|-3---6-5-6-8-7-8-8\---|-3---6-5-6-8-7-8-8\---|
|-1--------------------|-1--------------------|


||------------------------|------------------------||
||o-----------------------|-----------------------o||
||------------------------|------------------------||
||------5-----6-----7---9-|-----5-----6-----7---9--||
||o-3---3-----4-----5---7-|-3---3-----4-----5---7-o||
||--1---------------------|-1----------------------||
|
|       PM--------------|       PM--------------|
||------------------------|------------------------||
||o-----------------------|-----------------------o||
||------------------------|------------------------||
||------------------------|------------------------||
||o-3---3-3-3-4-4-4-5-5-7-|-3---3-3-3-4-4-4-5-5-7-o||
||--1---------------------|-1----------------------||


      PM--|     PM--|       PM--|     PM--|
|---------------------|---------------------|
|---------------------|---------------------|
|---------------------|---------------------|
|---------------------|---------------------|
|-3---4-3-4-3---4-3-4-|-3---4-3-4-3---4-3-4-|
|-1---------1---------|-1---------1---------|
|
|     PM--|     PM--|
|---------------------|---------------------|
|---------------------|---------------------|
|---------------------|---------------------|
|---------------------|-----4-3-4-----4-3-4-|
|-3---4-3-4-3---4-3-4-|-3---------3---------|
|-1---------1---------|-1---------1---------|


   Verse
    Gtrs I, II
                            PM--------------------|
||--------------------------------------------------|
||o-------------------------------------------------|
||--------------------------------------------------|
||--7-7-7-7-7-7-6-6-6-6-6-6-------------------------|
||o-5-5-5-5-5-5-4-4-4-4-4-4-------------------------|
||--------------------------6-6-6-6-6-6-5-5-5-5-5-5-|


                          PM--------|
|---------------------------------------|
|---------------------------------------|
|---------------------------------------|
|-7-7-7-7-7-7-6-6-6-6-6-6---------------|
|-5-5-5-5-5-5-4-4-4-4-4-4-2-3-4-2-3-4---|
|---------------------------------------|


  PM--------------------|
|-------------------------------------------------|
|-------------------------------------------------|
|-------------------------------------------------|
|-------------------------7-7-7-7-7-7-9-9-9-9-9-9-|
|-------------------------5-5-5-5-5-5-7-7-7-7-7-7-|
|-5-5-5-5-5-5-7-7-7-7-7-7-------------------------|


  PM--------------------|
|---------------------------------------------------------||
|--------------------------------------------------------o||
|---------------------------------------------------------||
|-------------------------10-10-10-10-10-10-9-9-9-9-9-9---||
|--------------------------8--8--8--8--8--8-7-7-7-7-7-7--o||
|-5-5-5-5-5-5-7-7-7-7-7-7---------------------------------||


          PM--------------------|           PM--------|
|---------------------------------|---------------------|
|---------------------------------|---------------------|
|---------------------------------|---------------------|
|-7---6---------------------------|-7---6---------------|
|-5---4---------------------------|-5---4---2-3-4-2-3-4-|
|---------5-5-5-5-5-5-4-4-4-4-4-4-|---------------------|


 Solo
  PM--------------------|
|-------------------------------------------------|
|-------------------------------------------------|
|-------------------------------------------------|
|-------------------------7-7-7-7-7-7-9-9-9-9-9-9-|
|-------------------------5-5-5-5-5-5-7-7-7-7-7-7-|
|-5-5-5-5-5-5-7-7-7-7-7-7-------------------------|


  PM--------------------|
|--------------------------------------------------------|
|--------------------------------------------------------|
|--------------------------------------------------------|
|-------------------------10-10-10-10-10-10-9-9-9-9-9-9--|
|--------------------------8--8--8--8--8--8-7-7-7-7-7-7--|
|-5-5-5-5-5-5-7-7-7-7-7-7--------------------------------|


                          PM--------------------|
|-------------------------------------------------|
|-------------------------------------------------|
|-------------------------------------------------|
|-7-7-7-7-7-7-6-6-6-6-6-6-------------------------|
|-5-5-5-5-5-5-4-4-4-4-4-4-------------------------|
|-------------------------6-6-6-6-6-6-5-5-5-5-5-5-|


                          PM--------|
|-------------------------------------|
|-------------------------------------|
|-------------------------------------|
|-7-7-7-7-7-7-6-6-6-6-6-6-------------|
|-5-5-5-5-5-5-4-4-4-4-4-4-2-3-4-2-3-4-|
|-------------------------------------|


  PM--------------------|
|-------------------------------------------------|
|-------------------------------------------------|
|-------------------------------------------------|
|-------------------------7-7-7-7-7-7-9-9-9-9-9-9-|
|-------------------------5-5-5-5-5-5-7-7-7-7-7-7-|
|-5-5-5-5-5-5-7-7-7-7-7-7-------------------------|


  PM--------------------|
|--------------------------------------------------------|
|--------------------------------------------------------|
|--------------------------------------------------------|
|-------------------------10-10-10-10-10-10-9-9-9-9-9-9--|
|--------------------------8--8--8--8--8--8-7-7-7-7-7-7--|
|-5-5-5-5-5-5-7-7-7-7-7-7--------------------------------|


           PM--------------------|
|----------------------------------|-------------------------|
|----------------------------------|-------------------------|
|----------------------------------|-------------------------|
|-9--8-9---------------------------|-------------------------|
|-7--6-7---5-5-5-5-5-5-5-5-5-5-5-5-|-6-5-4-------------------|
|----------------------------------|-------6-5-4-6-5-4-6-5-4-|


 Bridge
|----------------|----------------|----------------|
|----------------|----------------|----------------|
|----------------|----------------|----------------|
|----------------|----------------|----------------|
|-8--7-8---------|-------8--7-8---|-------8--7-8---|
|-6--5-6---------|-------6--5-6---|-------6--5-6---|


 18/8                 4/4
                       TP         TP         TP         TP
|--------------------|----------|----------|----------|------|
|--------------------|----------|----------|----------|------|
|--------------------|----------|----------|----------|------|
|--------------------|----------|----------|----------|------|
|-------------8------|----------|----------|-8--------|-8----|
|-------------6------|-6--------|-6--------|----------|------|


   Solo
    Q=200
            PM|                       PM|
||----------------------------------|---------------------------------|
||o---------------------------------|---------------------------------|
||----------------------------------|---------------------------------|
||----------------------------------|---------------------------------|
||o-5-5-5-5-----5-5-4-4-4-4-5-5-5-5-|-----7-7-5-5-5-5-4-4-4-4-7-7-7-7-|
||----------0-0---------------------|-0-0-----------------------------|


          PM|                       PM|
|---------------------------------|---------------------------------|
|---------------------------------|---------------------------------|
|---------------------------------|---------------------------------|
|---------------------------------|---------------------------------|
|-5-5-5-5-----5-5-4-4-4-4-5-5-5-5-|-----7-7-5-5-5-5-4-4-4-4-7-7-7-7-|
|---------0-0---------------------|-0-0-----------------------------|


          PM|                       PM|
|---------------------------------|---------------------------------|
|---------------------------------|---------------------------------|
|---------------------------------|---------------------------------|
|---------------------------------|---------------------------------|
|-3-3-3-3-----3-3-2-2-2-2-3-3-3-3-|-----5-5-3-3-3-3-2-2-2-2-5-5-5-5-|
|---------0-0---------------------|-0-0-----------------------------|


          PM|                       PM----|
                                                                     3x
|---------------------------------|----------------------------------||
|---------------------------------|---------------------------------o||
|---------------------------------|----------------------------------||
|---------------------------------|----------------------------------||
|-3-3-3-3-----3-3-2-2-2-2-3-3-3-3-|-----5-5-3-3-3-3-2-2-2-2-5-5-5-5-o||
|---------0-0---------------------|-0-0------------------------------||


    PM--------------------------------------------------------------|
                                                                       4x
||----------------------------------|----------------------------------||
||o---------------------------------|---------------------------------o||
||----------------------------------|----------------------------------||
||----------------------------------|-3-3-3-3--------------------------||
||o-3-3-3-3-3-3-3-3-----------------|---------1-1-1-1-3-3-3-3-3-3-4-4-o||
||------------------1-1-1-1-1-1-1-1-|----------------------------------||


   Verse
            PM|                       PM|
||----------------------------------|---------------------------------|
||o---------------------------------|---------------------------------|
||----------------------------------|---------------------------------|
||----------------------------------|---------------------------------|
||o-5-5-5-5-----5-5-4-4-4-4-5-5-5-5-|-----7-7-5-5-5-5-4-4-4-4-7-7-7-7-|
||----------0-0---------------------|-0-0-----------------------------|


          PM|                       PM|
|---------------------------------|---------------------------------|
|---------------------------------|---------------------------------|
|---------------------------------|---------------------------------|
|---------------------------------|---------------------------------|
|-5-5-5-5-----5-5-4-4-4-4-5-5-5-5-|-----7-7-5-5-5-5-4-4-4-4-7-7-7-7-|
|---------0-0---------------------|-0-0-----------------------------|


          PM|                       PM|
|---------------------------------|---------------------------------|
|---------------------------------|---------------------------------|
|---------------------------------|---------------------------------|
|---------------------------------|---------------------------------|
|-3-3-3-3-----3-3-2-2-2-2-3-3-3-3-|-----5-5-3-3-3-3-2-2-2-2-5-5-5-5-|
|---------0-0---------------------|-0-0-----------------------------|


          PM|                       PM|
                                                                     3x
|---------------------------------|----------------------------------||
|---------------------------------|---------------------------------o||
|---------------------------------|----------------------------------||
|---------------------------------|----------------------------------||
|-3-3-3-3-----3-3-2-2-2-2-3-3-3-3-|-----5-5-3-3-3-3-2-2-2-2-5-5-5-5-o||
|---------0-0---------------------|-0-0------------------------------||


 Outro
 7/4                                  5/4
|------------------------------------|----------------------|
|------------------------------------|----------------------|
|------------------------------------|----------------------|
|---------------------------------3--|-----------------3----|
|-3p2p1-0-3p2p1-0-3p2p1-0-3p2p1-0-1--|-3p2p1-0-3p2p1-0-1----|
|------------------------------------|----------------------|


 6/8
|----------|-----*|
|----------|-----*|
|----------|-----*|
|----------|-----*|
|-4--3-2---|-----*|
|-2--1-0---|-----*|

End.
Добавлено: 26.08.2013
Другие материалы по этой песне:
  • Аккорды и текст

Страница создана 26.08.2013
http://primanota.ru/yattering/the-feeling-chords.htm
Привет, Гость.
Предлагаем пройти революционный курс по гитаре.
Подарок от PrimaNota.Ru, забирай!