PrimaNota.ru - самый крупный в мире бесплатный архив песенных текстов, аккордов, табулатур и нот


Yattering - Schism - текст песни, таба, видео

Регистрация Запомнить меня
Войти через:  Facebook Google Twitter Vk Yandex Mail.ru

Yattering - Schism - текст песни, таба, видео

Печатать
Просмотров: 120
Band: Yattering
Album: Genocide
Song: Schism
Record Label: Candlelight
Tuning: Ab Eb Ab Db F Bb


------------------------------------------------------------------|
------------------------------------------------------------------|
------------------------------------------------------------------|
---------------5---------4-5---------------5----------------------|
-1-4-2-----1-2-3-4-5-5-6-----1-4-2-----1-2-3-4-5-7-7-7-7-6-6-6-6--|
-1-4-2-3-4-------4-5---------1-4-2-3-4-------4-5------------------|
       pm. . .       . . . .       . . . .       . . . . . . . .

--------------------------------------------------|
--------------------------------------------------|
--------------------------------------------------|
---------------5---------4-5---------------5------|
-1-4-2-----1-2-3-4-5-5-6-----1-4-2-----1-2-3-4-5--|
-1-4-2-3-4-------4-5---------1-4-2-3-4-------4-5--|
       pm. . .       . . . .       . . . .

------------------------------------------------------------------------|
------------------------------------------------------------------------|
------------------------------------------------------------------------|
-----------------5---------4-5-------------------5----------------------|
-1-4-2-----1-2-1-3-4-5-5-6-----1-1-4-2-----1-2-1-3-4-5-7-7-7-7-6-6-6-6--|
-1-4-2-3-4-----1---4-5---------1-1-4-2-3-4-----1---4-5------------------|
       pm. . . .       . . . . .       . . . . .       . . . . . . . .

--------------------------------------------------------|
--------------------------------------------------------|
--------------------------------------------------------|
-----------------5---------4-5-------------------5------|
-1-4-2-----1-2-1-3-4-5-5-6-----1-1-4-2-----1-2-1-3-4-5--|
-1-4-2-3-4-----1---4-5---------1-1-4-2-3-4-----1---4-5--|
       pm. . . .       . . . . .       . . . . .

------------------------------------|
------------------------------------|
------------------------------------|
------------------------------------|
------------------------------------|
-11114422222222-11114422222222-2-5--|X2
                               pm.

----------------------------------------------------------------------|
----------------------------------------------------------------------|
----------------------------------------------------------------------|
----------------------------------------------------------------------|
-5--0------3-2-5--0------3-2-5--0------3-2-5--0------3-2-5--0---------|
--66-666666-----66-666666-----66-666666-----66-666666-----66--666666--|
  pm ......     .. ......     .. ......     .. ......     ..  ......

----------------------------------------------------------|
----------------------------------------------------------|
----------------------------------------------------------|
----------------------------------------------------------|
-5--0------3-2-5--0------3-2-5--0------3-2-5--0------3-2--|
--66-666666-----66-666666-----66-666666-----66-666666-----|
  pm ......     .. ......     .. ......     .. ......

------------------------------------|
------------------------------------|
------------------------------------|
------------------------------------|
------------------------------------|
-11114422222222-11114422222222-2-5--|X2
                               pm.

----------------------------------------------------------------------|
----------------------------------------------------------------------|
----------------------------------------------------------------------|
----------------------------------------------------------------------|
-5--0------3-2-5--0------3-2-5--0------3-2-5--0------3-2-5--0---------|
--66-666666-----66-666666-----66-666666-----66-666666-----66--666666--|
  pm ......     .. ......     .. ......     .. ......     ..  ......

----------------------------------------------------------|
----------------------------------------------------------|
----------------------------------------------------------|
----------------------------------------------------------|
-5--0------3-2-5--0------3-2-5--0------3-2-5--0------3-2--|
--66-666666-----66-666666-----66-666666-----66-666666-----|
  pm ......     .. ......     .. ......     .. ......

-------------------------------------|
-------------------------------------|
-------------------------------------|
---5---------------------------------|
-----6-------------------------------|
-5-----8--7-8-9-10-7-8-7-9-7-8-9-10--|X2
pm        . . . .. . . . . . . . ..

-------------------------------------|
-------------------------------------|
-------------------------------------|
---0---------------------------------|
-----1-------------------------------|
-0-----3-2-3-4-5-2-3-2-4-2-3-4-5-(0)-|X2
pm       . . . . . . . . . . . .
(0) only on last time

---------------|
---------------|
---------------|
-7-------------|
-5-7-9-7-10-7--|
---7-9-7-10-7--|X2
pm . . . .. .

---------------|
---------------|
---------------|
---------------|
-5-------------|
---7-9-7-10-7--|X2
trem.........

------------------------------------------------------------------|
------------------------------------------------------------------|
------------------------------------------------------------------|
---------------5---------4-5---------------5----------------------|
-1-4-2-----1-2-3-4-5-5-6-----1-4-2-----1-2-3-4-5-7-7-7-7-6-6-6-6--|
-1-4-2-3-4-------4-5---------1-4-2-3-4-------4-5------------------|
       pm. . .       . . . .       . . . .       . . . . . . . .

--------------------------------------------------|
--------------------------------------------------|
--------------------------------------------------|
---------------5---------4-5---------------5------|
-1-4-2-----1-2-3-4-5-5-6-----1-4-2-----1-2-3-4-5--|
-1-4-2-3-4-------4-5---------1-4-2-3-4-------4-5--|
       pm. . .       . . . .       . . . .

------------------------------------------------------------------------|
------------------------------------------------------------------------|
------------------------------------------------------------------------|
-----------------5---------4-5-------------------5----------------------|
-1-4-2-----1-2-1-3-4-5-5-6-----1-1-4-2-----1-2-1-3-4-5-7-7-7-7-6-6-6-6--|
-1-4-2-3-4-----1---4-5---------1-1-4-2-3-4-----1---4-5------------------|
       pm. . . .       . . . . .       . . . . .       . . . . . . . .

--------------------------------------------------------|
--------------------------------------------------------|
--------------------------------------------------------|
-----------------5---------4-5-------------------5------|
-1-4-2-----1-2-1-3-4-5-5-6-----1-1-4-2-----1-2-1-3-4-5--|
-1-4-2-3-4-----1---4-5---------1-1-4-2-3-4-----1---4-5--|
       pm. . . .       . . . . .       . . . . .

-----------|
-----------|
-----------|
-----------|
-----1-----|
-----1-----|

----------------------|
----------------------|
----------------------|
----------------------|
-------------2-3-5-6--|
-311151117111---------|X2
 pm..................

-----------|
-----------|
-----------|
-----------|
-----1-----|
-----1-----|

----------------------|
----------------------|
----------------------|
----------------------|
-------------2-3-5-6--|
-311151117111---------|X4
 pm..................

------------------------------------|
------------------------------------|
------------------------------------|
------------------------------------|
------------------------------------|
-11114422222222-11114422222222-2-5--|X4
                               pm.

----------------------------------------------------------------------|
----------------------------------------------------------------------|
----------------------------------------------------------------------|
----------------------------------------------------------------------|
-5--0------3-2-5--0------3-2-5--0------3-2-5--0------3-2-5--0---------|
--66-666666-----66-666666-----66-666666-----66-666666-----66--666666--|
  pm ......     .. ......     .. ......     .. ......     ..  ......

----------------------------------------------------------|
----------------------------------------------------------|
----------------------------------------------------------|
----------------------------------------------------------|
-5--0------3-2-5--0------3-2-5--0------3-2-5--0------3-2--|
--66-666666-----66-666666-----66-666666-----66-666666-----|
  pm ......     .. ......     .. ......     .. ......

---------------|
---------------|
---------------|
---------------|
-22-2-2-222-2--|
-22-2-2-222-2--|
 pm . . ...

(Lead Guitar)
-12-12-12-12-12-12-12-12\9--|
----------------------------|
----------------------------|
----------------------------|
----------------------------|
----------------------------|

-------------------|
-------------------|
-------------------|
-----4-----8-7-10--|
-0-2---4-6---------|
-------------------|X4
 trem.............

---------------|
---------------|
---------------|
---------------|
-22-2-2-222-2/-|
-22-2-2-222-2/-|
 pm . . ...

-------------------|
-------------------|
-------------------|
-----4-----8-7-10--|
-0-2---4-6---------|
-------------------|X2
 trem.............

---------------|
---------------|
---------------|
---------------|
-22-2-2-222-2/-|
-22-2-2-222-2/-|
 pm . . ...

-------------------|
-------------------|
-------------------|
-------------------|
-2-2-2-2-25-3-4/5--|
-2-2-2-2-25-2-4/5--|X5
pm . . . .. .

---------------|
---------------|
---------------|
---------------|
-2-5-2-4-2-2/--|
-2-5-2-4-2-2/--|X2
pm . . . .

--------------|
--------------|
--------------|
--------------|
-2-5-2-4-2-2--|
-2-5-2-4-2-2--|
pm . . . .

-------------|
-------------|
-------------|
-7-2-4-2-5-2-|
-5-0-2-0-3-0-|
-------------|X2
 pm. . . . .

-------------|
-------------|
-------------|
-------------|
-5-0-2-0-3-0-|
-------------|X2
 trem.......

------------------------------------------------------------------|
------------------------------------------------------------------|
------------------------------------------------------------------|
---------------5---------4-5---------------5----------------------|
-1-4-2-----1-2-3-4-5-5-6-----1-4-2-----1-2-3-4-5-7-7-7-7-6-6-6-6--|
-1-4-2-3-4-------4-5---------1-4-2-3-4-------4-5------------------|
       pm. . .       . . . .       . . . .       . . . . . . . .

--------------------------------------------------|
--------------------------------------------------|
--------------------------------------------------|
---------------5---------4-5---------------5------|
-1-4-2-----1-2-3-4-5-5-6-----1-4-2-----1-2-3-4-5--|
-1-4-2-3-4-------4-5---------1-4-2-3-4-------4-5--|
       pm. . .       . . . .       . . . .

------------------------------------------------------------------------|
------------------------------------------------------------------------|
------------------------------------------------------------------------|
-----------------5---------4-5-------------------5----------------------|
-1-4-2-----1-2-1-3-4-5-5-6-----1-1-4-2-----1-2-1-3-4-5-7-7-7-7-6-6-6-6--|
-1-4-2-3-4-----1---4-5---------1-1-4-2-3-4-----1---4-5------------------|
       pm. . . .       . . . . .       . . . . .       . . . . . . . .

--------------------------------------------------------|
--------------------------------------------------------|
--------------------------------------------------------|
-----------------5---------4-5-------------------5------|
-1-4-2-----1-2-1-3-4-5-5-6-----1-1-4-2-----1-2-1-3-4-5--|
-1-4-2-3-4-----1---4-5---------1-1-4-2-3-4-----1---4-5--|
       pm. . . .       . . . . .       . . . . .



THE END
Добавлено: 21.09.2013
Вам также может быть интересно:
Другие материалы по этой песне:
  • Аккорды и текст

Страница создана 31.03.2012
http://primanota.ru/yattering/schism-chords.htm
Привет, Гость.
Предлагаем пройти революционный курс по гитаре.
Подарок от PrimaNota.Ru, забирай!