PrimaNota.ru - самый крупный в мире бесплатный архив песенных текстов, аккордов, табулатур и нот


Yasushi Ishii - Logos Naki World - аккорды и текст, видео

Регистрация Запомнить меня
Войти через:  Facebook Google Twitter Vk Yandex Mail.ru

Yasushi Ishii - Logos Naki World - аккорды и текст, видео

Печатать
Просмотров: 116
Logos Naki World
Yasushi Ishii
Intro: Em  G 
 
Em 
Tell me cool vibration 
G 
Revlofantasy 
Em                                       G 
Tell me who, tell me surely, and the name 
Em 
I'll be stunned, I'll be waiting 
G                                      Em 
Ghosts of horror show, and I don't care 
Em 
Just say ya love 
 
Refrão: 
 G                F#              Bm    A 
Oh down down, wish it's just a revelation 
 G                F#              Bm    A 
Take me once, take me to the revolution 
 G                F#                  Bm 
Down down won't ya hear the vibrations? 
           A                      G   F# 
Take me home, and I'll look to return 
Em 
(Shooby dooby doo, Shooby dooby doo, Doooo) 
 
(Shooby dooby doo, Shooby dooby doo, Doooo) 
 
Intro: Em  G 
 
Em 
Double the pain 
 
Double the pleasure 
G 
Double your fantasy 
Em 
Trust beauty, just say ya love 
 
(Refrão) 
 
 G                F#              Bm    A 
Oh down down, wish it's just a revelation 
 G                F#              Bm    A 
Take me once, take me to the revolution 
 G                F#                  Bm 
Down down won't ya hear the vibrations? 
           A                      G   F# 
Take me home, and I'll look to return 
Em 
(Shooby dooby doo, Shooby dooby doo, Doooo) 
(Shooby dooby doo, Shooby dooby doo, Doooo) 
 
Intro: Em  G 
 
E|12-----------------------15-14--------------12---------15-14-14------------------------15-| 
B|---15-14-12--12-15-14-12------12---14-15-14----15-14-15---------15-12-15-15-12-15-15-12---| 
G|------------------------------------------------------------------------------------------| 
D|------------------------------------------------------------------------------------------| 
A|------------------------------------------------------------------------------------------| 
E|------------------------------------------------------------------------------------------| 
 
 
 
E|----------------------------12-----------------------15-14-----------12| 
B|12-15--12/14--12/14----15------15-14-12--12-15-14-12------12---14-15---| 
G|-----------------------------------------------------------------------| 
D|-----------------------------------------------------------------------| 
A|-----------------------------------------------------------------------| 
E|-----------------------------------------------------------------------| 
 
 
( G  F#  Bm  A ) 
 
 
E|---------------------5----------------| 
B|-8-7-------7-8-7-------8-7------7-8-7-| 
G|----4-6-7-------4-6-7------4-6-7------| 
D|--------------------------------------| 
A|--------------------------------------| 
E|--------------------------------------| 
 
 
Refrão: 
 G                F#              Bm    A 
Oh down down, wish it's just a revelation 
 G                F#              Bm    A 
Take me once, take me to the revolution 
 G                F#                  Bm 
Down down won't ya hear the vibrations? 
           A                      G   F# 
Take me home, and I'll look to return 
Em 
(Shooby dooby doo, Shooby dooby doo, Doooo) 
 
(Shooby dooby doo, Shooby dooby doo, Doooo)


http://www.gitarogrencisi.com/
Добавлено: 19.05.2016
Вам также может быть интересно:
Другие материалы по этой песне:
  • Аккорды и текст

Страница создана 19.05.2016
http://primanota.ru/yasushi-ishii/logos-naki-world-chords.htm
Привет, Гость.
Предлагаем пройти революционный курс по гитаре.
Подарок от PrimaNota.Ru, забирай!