PrimaNota.ru - самый крупный в мире бесплатный архив песенных текстов, аккордов, табулатур и нот


Yasupochi - Mononoke Hime - таба, видео

Регистрация Запомнить меня
Войти через:  Facebook Google Twitter Vk Yandex Mail.ru

Yasupochi - Mononoke Hime - таба, видео

Печатать
Просмотров: 195
Уроки эстрадного вокала в Санкт-Петербурге
E|-----3--3--1--3--------6--1-----------------3--3--1--3--------3--6----------|
B|--1-----3-----4-----3-----------3--1--3--1--1--------1-----1-----4-----4--6-|
G|-----0-----------0--------------------3-----------3-----1-----------3-------|
D|-----------------------------3----------------------------------------------|
A|--3-----------------------1-------------------------------------------------|
E|-----------------------------------------4----------------------------------|



E|--3--3--6--8------8--8--8---------8--6--------------------1--1-----3--1-----|
B|--3--4---------------9------------9--------6--8-----------2-----1-------1---|
G|--3--3------------8------------8-----------7--8-----8-----------1---------1-|
D|-----------10-----------10-----------6-----8--8-----8-----3-----------------|
A|--------8----------------------------------6-----------4--------------------|
E|----------------------------------------------------------------------------|



E|--------------------------3--3--1--3--------6--1---------------------------|
B|--------1--0--1--3--6--1-----3-----4-----3-----------3-----1-----3-----1---|
G|-----------0--2--4--------0-----------0--3-----------3-----------3-----1---|
D|--0--3--------------------------------------------3-----3-----3-----3------|
A|-----------------------3-----------------------1---------------------------|
E|---------------------------------------------------------------------------|



E|--3--3--1--3--3-----3--6-----------3--3--8------8---8--8---------8--|
B|--1--1-----1-----1--------------6--3--4-------------9---------9-----|
G|--------3--------------8-----8--------3---------10------------------|
D|--------------------------8-----------------10------------10--------|
A|-----------------------6-----------------8--------------------------|
E|--------------------------------------------------------------------|



E|--6-----------------------1--1-----3--1-----------------1--3-----1--|
B|--------6-----8-----------1-----1--1-----1-----4-----4-----------1--|
G|--------7-----8-----8-----1-----0-----1-----1-----3-----------3--3--|
D|-----6-----6--8--8-----8--3--------------------------------------0--|
A|--------------6-----------------------------------------------------|
E|--6-----------------------------------------------------------------|



E|--8--8--8--10--8-----8--8--11-----10--3-----3--6--1-----6-----3-----1--3--|
B|--8--8-----8---------8-------------------3-----------1--------------------|
G|--8-----8---------0--8------------10--3-----------1--------5-----3--------|
D|-------------------------------8------------------------------1-----------|
A|--------------------------------------------------------------------------|
E|--8-----------------------------------------------------------------------|



E|--10--10------11--10--------11-----10---------------8-----6--4--6--|
B|--------------8----------8---------8------8------8-----------------|
G|----------10------10------------8------8-----10--------8--7--5--8--|
D|------8---------------8-----10------------8---------6--------------|
A|--10------------------------------------------------------------6--|
E|-------------------------------------------------------------------|



E|-----------3--3--6--8-----11--10--------------8-----------1-----3--6--|
B|--------6--3--4-----9---------11----------11--------4--8--------4-----|
G|-----8--------3-----8--8------10--12-------------5-----------1--------|
D|--8-----------------------------------12------6-----------------------|
A|--------------------8---------10--------------------------------------|
E|----------------------------------------------------------------------|




E|--8-----11--10--------------8-----------8-----------------------8--|
B|--------9---11----------11--------6--8-----8--6--8--5-----5--8-----|
G|------------10--12-------------0-----------------------5-----------|
D|-----6--------------12---------------------------------------------|
A|--8---------10-----------------------------------------------------|
E|----------------------------8--------------------------------------|
Добавлено: 04.06.2013
Другие материалы по этой песне:
  • Аккорды и текст

Страница создана 04.06.2013
http://primanota.ru/yasupochi/mononoke-hime-chords.htm
Привет, Гость.
Предлагаем пройти революционный курс по гитаре.
Подарок от PrimaNota.Ru, забирай!